PrimaNota.ru - самый крупный в мире бесплатный архив песенных текстов, аккордов, табулатур и нот


Russian Circles - Memorial - таба, видео

Регистрация Запомнить меня
Войти через:  Facebook Google Twitter Vk Yandex Mail.ru

Russian Circles - Memorial - таба, видео

Печатать
Просмотров: 115
Memorial- Russian circles
Tabbed by ear
 enjoy
D standard tuning


MELODY
D|---------------------------------------------|
A|---------------------------------------------|
F|--5----------7--4-----------5-----------7--4-|
C|---------------------------------------------|
G|---------------------------------------------|
D|---------------------------------------------|
   ^Tremolo pick, listen to song for timing


OVERDUB CHORDS
D|-------------------------      |------------------------|
A|-------------------------      |------------------------|
F|---------------0---------(x4). |--------------0---------|(x4).
C|------5-----5-----5------      |------5-----5----5------|
G|---7-----7------------7--      |---7-----7-----------7--|
D|-8-----------------------      |-0----------------------|
   C.                              Em.

POWER CHORDS
|----------------------------------------|
|----------------------------------------|
|----------------------------------------|
|--10----------------------2-------------|
|--10----------------------2-------------|
|---8----------------------0-------------|
With distortion



LYRICS (by Chelsea Wolfe)

I cannot say what years have come and gone.

I only know the silence - it breathed on and in.

What sang in me sings no more.

Where stood a wild heart stirred no more.

There stood wild heart.

And I have been slain.

Head full of ghosts tonight.

Have I gone insane?

Was it wrong to go down.

To want you to stay?

Head full of ghosts tonight.

Have I gone insane?



Check out my tab for memoriam also.
Добавлено: 01.05.2015
Другие материалы по этой песне:

Страница создана 11.04.2014
http://primanota.ru/russian-circles/memorial-chords.htm
Привет, Гость.
Предлагаем пройти революционный курс по гитаре.
Подарок от PrimaNota.Ru, забирай!