PrimaNota.ru - самый крупный в мире бесплатный архив песенных текстов, аккордов, табулатур и нот


Russian Circles - Fathom - таба, видео

Регистрация Запомнить меня
Войти через:  Facebook Google Twitter Vk Yandex Mail.ru

Russian Circles - Fathom - таба, видео

Печатать
Просмотров: 156
Уроки эстрадного вокала в Санкт-Петербурге
-------------------------------------------------------------------------------
                            Fathom – Russian Circles
-------------------------------------------------------------------------------
Tabbed by: Pr0gR0ckFan
Email: green1day1fan@yahoo.com

Tuning: Drop D kind of [ D A D G A D ]

If you don't feel like changing the tuning then just play the notes on the 3rd string 2 
lower

Listen for rhythm, changes in dynamics, etc.


Intro Riff 1
I think the beginning is played by a cello or violin. There might be some guitar notes 
out, too. Play something like this at different octaves.
||--------------------------------|--------------------------------||
||--------------------------------|--------------------------------||
||--------------------------------|--------------------------------||
||-7~------------7~---------------|-7~------------7h8-----7h8------||
||--------------------------------|--------------------------------||
||--------------------------------|--------------------------------||

Intro Riff 2
||--------------------------------|--------------------------------||
||--------------------------------|--------------------------------||
||--------------------------------|--------------------------------||
||-7-------3-------0--------------|-8-------3-------5--------------|| x2
||-7-------3-------0--------------|-8-------3-------5--------------||
||-7-------3-------0--------------|-8-------3-------5--------------||

There are a few measures just of the bass

Verse
||--------------------------------|--------------------------------||
||--------------------------------|--------------------------------||
||--------------------------------|--------------------------------||
||-7-7-----3-3-----0-0------------|-8-8-----3-3-----5-5------------|| x2
||-7-7-----3-3-----0-0------------|-8-8-----3-3-----5-5------------||
||-7-7-----3-3-----0-0------------|-8-8-----3-3-----5-5------------||

Chorus
||---------------------------------|------------------------------||
||---------------------------------|------------------------------||
||---------------------------------|------------------------------||
||-7-7---3-3---7-7---0-0-----------|-8-8---3-3---5-5--------------|| x2
||-7-7---3-3---7-7---0-0-----------|-8-8---3-3---5-5--------------||
||-7-7---3-3---7-7---0-0-----------|-8-8---3-3---5-5--------------||

Bridge
Play this without distortion
||----------------------------------||
||----------------15----------------||
||-------14----------------14-------||
||----------------------------------||
||----------------------------------||
||----------------------------------||

There are some octave chords layered in there. Something like this
|-------------------------------------------------|
|-------------------------------------------------|
|-14-14-14-14-14-14-14-14-14-14-14-14-14-14-14-14-|
|-------------------------------------------------| x2
|-12-12-12-12-12-12-12-12-12-12-12-12-12-12-12-12-|
|-------------------------------------------------|

|-------------------------------------------------|
|-------------------------------------------------|
|-12-12-12-12-12-12-12-12-12-12-12-12-12-12-12-12-|
|-------------------------------------------------| x2
|-10-10-10-10-10-10-10-10-10-10-10-10-10-10-10-10-|
|-------------------------------------------------|

|-------------------------------------------------|
|-------------------------------------------------|
|-14-15-15-15-15-15-15-15-15-15-15-15-15-15-15-15-|
|-------------------------------------------------| x2
|-13-13-13-13-13-13-13-13-13-13-13-13-13-13-13-13-|
|-------------------------------------------------|

|-------------------------------------------------|
|-------------------------------------------------|
|-10-10-10-10-10-10-10-10-10-10-10-10-10-10-10-10-|
|-------------------------------------------------| x2
|-8--8--8--8--8--8--8--8--8--8--8--8--8--8--8--8--|
|-------------------------------------------------|

|-------------------------------------------------|
|-------------------------------------------------|
|-14-14-14-14-14-14-14-14-14-14-14-14-14-14-14-14-|
|-------------------------------------------------| x2
|-12-12-12-12-12-12-12-12-12-12-12-12-12-12-12-12-|
|-------------------------------------------------|


|-------------------------------------------------|
|-------------------------------------------------|
|-17-17-17-17-17-17-17-17-17-17-17-17-17-17-17-17-|
|-------------------------------------------------| x2
|-15-15-15-15-15-15-15-15-15-15-15-15-15-15-15-15-|
|-------------------------------------------------|

Chorus x2

Outro Riff 1
||--------------------------------|--------------------------------|
||-------8---------------8--------|-------8---------------8--------|
||-9-----------9---9-----------9--|-9-----------9---9-----------9--|
||--------------------------------|--------------------------------|
||--------------------------------|--------------------------------|
||--------------------------------|--------------------------------|

|------------------------------------|-------------------------------||
|-------15---------------15----------|-------8---------------8-------||
|-16-----------16---16-----------16--|16----------16---16---------16-||
|------------------------------------|-------------------------------||
|------------------------------------|-------------------------------||
|------------------------------------|-------------------------------||

Play twice by itself, then play Outro Riff 2 over it several times

Outro Riff 2
||-----------------------------|----------------------------|
||-----------------------------|----------------------------|
||-----------------------------|----------------------------|
||-7------7------2------2------|-3------3------5-----5------|
||-7------7------2------2------|-3------3------5-----5------|
||-7------7------2------2------|-3------3------5-----5------|

|-----------------------------|----------------------------|
|-----------------------------|----------------------------|
|-----------------------------|----------------------------|
|-7------7------2------2------|-3------3------0-----0------|
|-7------7------2------2------|-3------3------0-----0------|
|-7------7------2------2------|-3------3------0-----0------|

|---------------------------------|-----------------------------------|
|---------------------------------|-----------------------------------|
|---------------------------------|-----------------------------------|
|-7--7---7-7------2--2---2-2------|-3--3---3-3-------5--5---5-5-------|
|-7--7---7-7------2--2---2-2------|-3--3---3-3-------5--5---5-5-------|
|-7--7---7-7------2--2---2-2------|-3--3---3-3-------5--5---5-5-------|

|---------------------------------|----------------------------------||
|---------------------------------|----------------------------------||
|---------------------------------|----------------------------------||
|-7--7---7-7------2--2---2-2------|-3-\------------------------------||
|-7--7---7-7------2--2---2-2------|-3-\------------------------------||
|-7--7---7-7------2--2---2-2------|-3-\------------------------------||
Добавлено: 20.05.2012
Другие материалы по этой песне:

Страница создана 17.05.2012
http://primanota.ru/russian-circles/fathom-chords.htm
Привет, Гость.
Предлагаем пройти революционный курс по гитаре.
Подарок от PrimaNota.Ru, забирай!