PrimaNota.ru - самый крупный в мире бесплатный архив песенных текстов, аккордов, табулатур и нот


Russell Crowe - I Miss My Mind - аккорды и текст, видео

Регистрация Запомнить меня
Войти через:  Facebook Google Twitter Vk Yandex Mail.ru

Russell Crowe - I Miss My Mind - аккорды и текст, видео

Печатать
Просмотров: 158
I Miss My Mind
Russell Crowe
SONG:   I MISS MY MIND
ARTIST: RUSSELL CROWE & THE ORDINARY FEAR OF GOD
TAB BY: DON CZARSKI
EMAIL:  GUITARZAN7@HOTMAIL.COM


                   I MISS MY MIND
       RUSSELL CROWE & THE ORDINARY FEAR OF GODD 

INTRO:

     D    Emin9  Em9 Emin9  D  A  D     D
          (no 5)     (no5)
E ---2------2-----2-----2---2--0--2-2---2--
B ---3------3-----3-----3---3--2--3---3-3--
G ---2------0-----0-----0---2--2--2-----2--
D -0---0h2--2-----0--2--2---0--2--0--------
A ------------2---2------------------------
E -----------------------------------------


VERSE:
 D       G       Bm      A    
Victory was not mine to have 
D           G     D  
It came to other men
D          G        Bm        A     
No daring feats on foreign streets 
D           A      D  
No history making pen


CHORUS:
Bm                     G
The ship I sailed was lost in fog,
 D                       A
Some distance from the coast
D            G       Bm        A
Of all the things I lost that year,
D          A        D        
I miss my mind the most


     D    Emin9  Em9 Emin9  D  A  D    D
          (no 5)     (no5)
E ---2------2-----2-----2---2--0--2----2--
B ---3------3-----3-----3---3--2--3--3-3--
G ---2------0-----0-----0---2--2--2----2--
D -0---0h2--2-----0--2--2---0--2--0-------
A ------------2---2-----------------------
E ----------------------------------------


VERSE:
D           G       Bm        A         
I broke my back on boredom's rack,
 D            G        D   
Like this my time was sold
 D          G     Bm      A
Like every moment was my last
  D          A    D    
Spent like fools gold


CHORUS:
 Bm             G            
Wasted now the passing years 
D                A
Of little I can boast
D            G       Bm        A   
Of all the things I lost that year 
D          A        D   
I miss my mind the most


INSTRUMENTAL: - 2x's

    D    Emin9  Em9 Emin9   D  A  D    D
          (no 5)     (no5)
E ---2------2-----2-----2---2--0--2----2--
B ---3------3-----3-----3---3--2--3--3-3--
G ---2------0-----0-----0---2--2--2----2--
D -0---0h2--2-----0--2--2---0--2--0-------
A ------------2---2-----------------------
E ----------------------------------------


CHORUS:
Bm                     G
The ship I sailed was lost in fog,
 D                      A
Some distance from the coast
D            G       Bm        A         
Of all the things I lost that year,
D            A        D   
I missed my mind the most


    D    Emin9  Em9 Emin9   D  A  D    D
          (no 5)     (no5)
E ---2------2-----2-----2---2--0--2----2--
B ---3------3-----3-----3---3--2--3--3-3--
G ---2------0-----0-----0---2--2--2----2--
D -0---0h2--2-----0--2--2---0--2--0-------
A ------------2---2-----------------------
E ----------------------------------------


VERSE:  ( N.C. - NO GUITAR)
      
When spring was young I had a thirst
For standing proud and tall
I drank the summers full of wine
And fell right into fall


CHORUS:
Bm                      G         
But winters chill with vengeance came
     D              A
And proved a cruel host
D            G       Bm         A
Of all the things I lost that year,
D          A        D   
I miss my mind the most.


CHORUS:
Bm                      G
The ship I sailed was lost in fog,
 D                      A
Some distance from the coast
D            G       Bm        A          
Of all the things I lost that year,
D            A        D   
I missed my mind the most

D            G          Bm        A      
Of all the things I've lost this year,
D             A       D   
I missed my mind the most


OUTRO: PLAY A FEW TIMES TO END
 
    D    Emin9  Em9 Emin9   D  A  D    D
          (no 5)     (no5)
E ---2------2-----2-----2---2--0--2----2---
B ---3------3-----3-----3---3--2--3--3-3---
G ---2------0-----0-----0---2--2--2----2---
D -0---0h2--2-----0--2--2---0--2--0--------
A ------------2---2------------------------
E -----------------------------------------





Добавлено: 25.07.2015
Другие материалы по этой песне:
  • Аккорды и текст

Страница создана 25.07.2015
http://primanota.ru/russell-crowe/i-miss-my-mind-chords.htm
Привет, Гость.
Предлагаем пройти революционный курс по гитаре.
Подарок от PrimaNota.Ru, забирай!