PrimaNota.ru - самый крупный в мире бесплатный архив песенных текстов, аккордов, табулатур и нот


Rush - Shapes Of Things - текст песни, бас-таба, видео

Регистрация Запомнить меня
Войти через:  Facebook Google Twitter Vk Yandex Mail.ru

Rush - Shapes Of Things - текст песни, бас-таба, видео

Печатать
Просмотров: 115
----------------------------------------------------------------------------
	        Shapes Of Things (Yard Birds cover) - Rush
----------------------------------------------------------------------------

 G|---------|
 D|---------|
 A|---------|
 E|-1-(24x)-|

 G|-----------------|
 D|-----------------| x3
 A|---2-3-4-5-------|
 E|-3---------5-3-1-|

 G|---------|
 D|---------|
 A|---------|
 E|-1-(24x)-|

 G|-----------------|
 D|-----------------| x3
 A|---2-3-4-5-------|
 E|-3---------5-3-1-|

 G|---------|
 D|---------|
 A|---------|
 E|-1-(24x)-|

 G|-------------------------------|
 D|---2---3---2-------0---1---0---| x3
 A|-3---3---3---3---1---1---1---1-|
 E|-------------------------------|

 G|----------|
 D|----------|
 A|-1-1---5~-|
 E|----------|

 G|-----------------|
 D|-----------------| x3
 A|---2-3-4-5-------|
 E|-3---------5-3-1-|

 G|---------|
 D|---------|
 A|---------|
 E|-1-(24x)-|

 G|-------------------------------|
 D|---2---3---2-------0---1---0---| x3
 A|-3---3---3---3---1---1---1---1-|
 E|-------------------------------|

 G|---------|
 D|---------|
 A|---------|
 E|-1-(24x)-|

 G|--------|
 D|--------| x6
 A|--------|
 E|-3~--1~-|

 G|----------|
 D|----------|
 A|-1-1---5~-|
 E|----------|

 G|-----|
 D|-----|
 A|-----|
 E|-13\-|

 G|-----------------|
 D|-----------------| x3
 A|---2-3-4-5-------|
 E|-3---------5-3-1-|

 G|---------|
 D|---------|
 A|---------|
 E|-1-(24x)-|

 G|-----------------|
 D|-----------------| x3
 A|---2-3-4-5-------|
 E|-3---------5-3-1-|

 G|---------|
 D|---------|
 A|---------|
 E|-1-(24x)-|
 
 G|--------|
 D|--------| you do this part a whole buncha 
 A|--------| times
 E|-3~--1~-|

 G|----------|
 D|----------| and end with this
 A|-1-1---5~-|
 E|----------|


============================================================================
Добавлено: 29.02.2012
Другие материалы по этой песне:
  • Аккорды и текст

Страница создана 29.02.2012
http://primanota.ru/rush/shapes-of-things-chords.htm
Привет, Гость.
Предлагаем пройти революционный курс по гитаре.
Подарок от PrimaNota.Ru, забирай!