PrimaNota.ru - самый крупный в мире бесплатный архив песенных текстов, аккордов, табулатур и нот


Rush - Nocturne - текст песни, таба, видео

Регистрация Запомнить меня
Войти через:  Facebook Google Twitter Vk Yandex Mail.ru

Rush - Nocturne - текст песни, таба, видео

Печатать
Просмотров: 118
As recorded by Rush
                       (From the 2002 Album VAPOR TRAILS)

Words by Neil Peart

Music by Geddy Lee and Alex Lifeson
Transcribed by Travis Lausch

Last Updated: 2004-10-05

Gtr I (E A D G B E) - 'Untitled'
Gtr II (E A D G B E) - 'Untitled'
Gtr III (E A D G B E) - 'Untitled'
Gtr IV (E A D G B E) - 'Untitled'
Gtr V (E A D G B E) - 'Untitled'


U-G notes: I had transcribed this years ago and it had been submitted to the
Rush Tablature project. It completely slipped my mind to post it here. So, 
here it is! Sorry it took so long to get it up on U-G :P

 Intro
  Q=140
                   F#5               E5/F#
 4/4
  Gtr I
  Wx4            E  E  E  E  E  E  E E
|------------||------------------------|
|------------||o-----------------------|
|------------||----11-11-11-11-11-11-9-|
|------------||----11-11-11-11-11-11-9-|
|------------||o----9--9--9--9--9--9-9-|
|------------||------------------------|


      B5/F#          E5/F# F#5               E5/F#
  E E  E  E  E  E  E E   E  E  E  E  E  E  E E
|----------------------|-----------------------|
|----------------------|-----------------------|
|-9-9-11-11-11-11-11-9-|-9-11-11-11-11-11-11-9-|
|-9-9--9--9--9--9--9-9-|-9-11-11-11-11-11-11-9-|
|-9-9--9--9--9--9--9-9-|-9--9--9--9--9--9--9-9-|
|----------------------|-----------------------|


                  N.C.(F#m)
                  Gtr II
  E E H.       3x E E E E E E Q     E  E  E  E  E  E  Q    E E Q  E E Q
|--------------||----------------|-----------------------|----------------|
|-------------o||----------------|-----------------------|----------------|
|-9-9-9--------||----------------|-----------------------|----------------|
|-9-9-9--------||----------------|-----------------------|----------------|
|-9-9-9-------o||----------------|-----------------------|----------------|
|--------------||-2-2-2-2-2-2-2S=|=12-12-12-12-12-12-12S=|=7-7-7--7-7-7---|


                          1st Verse
   E  E  E  E  E  E  Q     E E E E E E Q
|------------------------|----------------|
|------------------------|----------------|
|------------------------|----------------|
|------------------------|----------------|
|------------------------|----------------|
|-10-10-10-10-10-10-10\--|-2-2-2-2-2-2-2S=|


   E  E  E  E  E  E  Q    E E Q  E E Q
|-----------------------|----------------|
|-----------------------|----------------|
|-----------------------|----------------|
|-----------------------|----------------|
|-----------------------|----------------|
|-12-12-12-12-12-12-12S=|=7-7-7--7-7-7---|


   E  E  E  E  E  E  Q     E E E E E E Q
|------------------------|----------------|
|------------------------|----------------|
|------------------------|----------------|
|------------------------|----------------|
|------------------------|----------------|
|-10-10-10-10-10-10-10\--|-2-2-2-2-2-2-2S=|


   E  E  E  E  E  E  Q    E E Q  E E Q
|-----------------------|----------------|
|-----------------------|----------------|
|-----------------------|----------------|
|-----------------------|----------------|
|-----------------------|----------------|
|-12-12-12-12-12-12-12S=|=7-7-7--7-7-7---|


   E  E  E  E  E  E  Q     E E E E E E Q
|------------------------|----------------|
|------------------------|----------------|
|------------------------|----------------|
|------------------------|----------------|
|------------------------|----------------|
|-10-10-10-10-10-10-10\--|-2-2-2-2-2-2-2S=|


   E  E  E  E  E  E  Q    E E Q  E E Q
|-----------------------|----------------|
|-----------------------|----------------|
|-----------------------|----------------|
|-----------------------|----------------|
|-----------------------|----------------|
|-12-12-12-12-12-12-12S=|=7-7-7--7-7-7---|


   E  E  E  E  E  E  Q     E E E E E E Q
|------------------------|----------------|
|------------------------|----------------|
|------------------------|----------------|
|------------------------|----------------|
|------------------------|----------------|
|-10-10-10-10-10-10-10\--|-2-2-2-2-2-2-2S=|


   E  E  E  E  E  E  Q    E E Q  E E Q
|-----------------------|----------------|
|-----------------------|----------------|
|-----------------------|----------------|
|-----------------------|----------------|
|-----------------------|----------------|
|-12-12-12-12-12-12-12S=|=7-7-7--7-7-7---|


   E  E  E  E  E  E  Q     E  E E  E E  E Q       E  E  E  E  E  E  Q
|------------------------|---------------------|-------------------------|
|------------------------|---------------------|-------------------------|
|------------------------|---------------------|-------------------------|
|------------------------|---------------------|-------------------------|
|------------------------|---------------------|-------------------------|
|-10-10-10-10-10-10-10\--|-2--2-2--2-2--2-2S===|=12-12-12-12-12-12-12S===|
|
| Gtr III
|  W                       E  E E  E E  E E  E    E  E  E  E  E  E  E  E
|------------------------|--------12-----------|----------12-------------|
|------------------------|---12--------12------|----12----------12-------|
|------------------------|-9----9----9----9-11-|--9-----9-----9-----9-11-|
|------------------------|---------------------|-------------------------|
|------------------------|---------------------|-------------------------|
|------------------------|---------------------|-------------------------|


  E  E Q    E E Q       E  E  E  E  E  E  Q
|--------------------|----------------------------|
|--------------------|----------------------------|
|--------------------|----------------------------|
|--------------------|----------------------------|
|--------------------|----------------------------|
|-7--7-7----7-7-7----|-10-10-10-10-10-10-10\------|
|
| E  E E  E E E E  E    E  E  E  E  E  E  E   E
|--------------------|----------------------------|
|--------------------|----------------------------|
|-9----9----9-9-9-11-|--9--9-----9--------9--11---|
|---11---11----------|-------11----11-11----------|
|--------------------|----------------------------|
|--------------------|----------------------------|


  E  E E  E E E Q       E  E  E  E  E  E  Q
|--------------------|------------------------|
|--------------------|------------------------|
|--------------------|------------------------|
|--------------------|------------------------|
|--------------------|------------------------|
|-2--2-2--2-2-2-2S===|=12-12-12-12-12-12-12S==|
|
| E  E E  E E E E  E    E  E  E  E  E  E  E E
|--------------------|------------------------|
|---12---------------|------------------------|
|-9----9-11-9-9-9----|--9--9--9--9--9--9--9-9-|
|-----------------11-|------------------------|
|--------------------|------------------------|
|--------------------|------------------------|


  E E  Q    E E  Q      E  E  E  E  E  E  Q
|--------------------|-------------------------|
|--------------------|-------------------------|
|--------------------|-------------------------|
|--------------------|-------------------------|
|--------------------|-------------------------|
|-7-7--7----7-7--7---|-10-10-10-10-10-10-10\---|
|
| E E  E E  E E  E E    W
|--------------------|-------------------------|
|--------------------|-------------------------|
|-9-9---------9------|-------------------------|
|-----11-9-11---11-9-|-------------------------|
|--------------------|-------------------------|
|--------------------|-------------------------|


   Pre-Chorus
    $
    N.C.(F#5)
    Gtr I
    E   E   E   E   S S E   E   E     S S E   S S E    E    E   E   E
||----------------------------------|-----------------------------------|
||o---------------------------------|-----------------------------------|
||----------------------------------|-----------------------------------|
||----------------------------------|-----------------------------------|
||o---------------------------------|-----------------[4]---2---4---2---|
||--0---2---0---2---x-x-2---0---2---|-x-x-2---x-x-2---------------------|
|
|   Gtr II
|   PM-------------------------------------------------------------------
|   S S S S S S S S S S S S S S S S   S S S S S S S S  S  S S S S S S S
||----------------------------------|-----------------------------------|
||o---------------------------------|-----------------------------------|
||----------------------------------|-----------------------------------|
||----------------------------------|-----------------------------------|
||o---------------------------------|------------------4--4-2-2-4-4-2-2-|
||--0-0-2-2-0-0-2-2-2-2-2-2-0-0-2-2-|-0-0-2-2-2-2-2-2-------------------|


 1.,D.S.
  E   E   E   E   S S E   E   E     S S E   S S E    E    E   E   E
|---------------------------------|--------------------------------------||
|---------------------------------|-------------------------------------o||
|---------------------------------|--------------------------------------||
|---------------------------------|--------------------------------------||
|---------------------------------|-----------------[4]---2---4---2-----o||
|-0---2---0---2---x-x-2---0---2---|-x-x-2---x-x-2------------------------||
|
|-------------------------------------------------------------------|
| S S S S S S S S S S S S S S S S   S S S S S S S S  S  S S S S S S S
|---------------------------------|--------------------------------------||
|---------------------------------|-------------------------------------o||
|---------------------------------|--------------------------------------||
|---------------------------------|--------------------------------------||
|---------------------------------|------------------4--4-2-2-4-4-2-2---o||
|-0-0-2-2-0-0-2-2-2-2-2-2-0-0-2-2-|-0-0-2-2-2-2-2-2----------------------||


 Chorus
  2.,D.S.
  F#m11               Asus2             F#m11               Asus2
  E E E E +E  E Q     H       E E E E   E E E E +E  E Q     W
|-------------------|-----------------|-------------------|------------------|
|-------0-(0)-------|-----------------|-------0-(0)-------|------------------|
|-------------0-0---|-2-------2-2-0-0-|-------------0-0---|-2----------------|
|-------------------|-----------------|-------------------|------------------|
|-------------------|-----------------|-------------------|------------------|
|-0h2-2-------------|-----------------|-0h2-2-------------|------------------|
|
| E E E E  E  E E E   E E E E E E E E   E E E E  E  E E E   E E E E E E E E
|-------------------|-0-0-0-0-0-0-0-0-|-------------------|-0-0-0-0-0-0-0-0--|
|-------------------|-0-0-0-0-0-0-0-0-|-------------------|-0-0-0-0-0-0-0-0--|
|-------------------|-x-x-x-x-x-x-x-x-|-------------------|-x-x-x-x-x-x-x-x--|
|-4-4-4-4--4--4-4-4-|-7-7-7-7-7-7-7-7-|---4-4-4--4--4-4-4-|-7-7-7-7-7-7-7-7--|
|-4-4-4-4--4--4-4-4-|-7-7-7-7-7-7-7-7-|---4-4-4--4--4-4-4-|-7-7-7-7-7-7-7-7--|
|-2-2-2-2--2--2-2-2-|-5-5-5-5-5-5-5-5-|---2-2-2--2--2-2-2-|-5-5-5-5-5-5-5-5--|


    F#m11               Asus2
    E E E E +E  E Q     H       E E E E
||--------------------|-----------------|
||o-------0-(0)-------|-----------------|
||--------------0-0---|-2-------2-2-0-0-|
||--------------------|-----------------|
||o-------------------|-----------------|
||--0h2-2-------------|-----------------|
|
|   E E E E  E  E E E   E E E E E E E E
||--------------------|-0-0-0-0-0-0-0-0-|
||o-------------------|-0-0-0-0-0-0-0-0-|
||--------------------|-x-x-x-x-x-x-x-x-|
||----4-4-4--4--4-4-4-|-7-7-7-7-7-7-7-7-|
||o---4-4-4--4--4-4-4-|-7-7-7-7-7-7-7-7-|
||----2-2-2--2--2-2-2-|-5-5-5-5-5-5-5-5-|


                               To Coda
  F#m11               Asus2
  E E E E +E  E Q     W                  3x
|-------------------|--------------------||
|-------0-(0)-------|-------------------o||
|-------------0-0---|-2------------------||
|-------------------|--------------------||
|-------------------|-------------------o||
|-0h2-2-------------|--------------------||
|
| E E E E  E  E E E   E E E E E E E E    3x
|-------------------|-0-0-0-0-0-0-0-0----||
|-------------------|-0-0-0-0-0-0-0-0---o||
|-------------------|-x-x-x-x-x-x-x-x----||
|---4-4-4--4--4-4-4-|-7-7-7-7-7-7-7-7----||
|---4-4-4--4--4-4-4-|-7-7-7-7-7-7-7-7---o||
|---2-2-2--2--2-2-2-|-5-5-5-5-5-5-5-5----||


   2nd Verse
    N.C.(F#m)
    Gtr II
    E E E E E E Q     E  E  E  E  E  E  Q
||-----------------|-----------------------|
||o----------------|-----------------------|
||-----------------|-----------------------|
||-----------------|-----------------------|
||o----------------|-----------------------|
||--2-2-2-2-2-2-2S=|=12-12-12-12-12-12-12S=|


  E E Q  E E Q     E  E  E  E  E  E  Q    4x
|---------------|-------------------------||
|---------------|------------------------o||
|---------------|-------------------------||
|---------------|-------------------------||
|---------------|------------------------o||
|-7-7-7--7-7-7--|-10-10-10-10-10-10-10\---||


  E  E  E    E E  E Q       E  E  E    E  E  E  Q
|------------------------|---------------------------|
|------------------------|---------------------------|
|------------------------|---------------------------|
|------------------------|---------------------------|
|------------------------|---------------------------|
|-2--2--2----2-2--2-2S===|=12-12-12---12-12-12-12S===|
|
| Gtr IV
| E  E  S S  E E  E E  E    E  E  S S  E  E  E  E  E
|------------------------|---------------------------|
|------------------------|---------------------------|
|---11-11p9----9-11-9-11-|----11-11p9-----9-11--9-11-|
|-----------11-----------|------------11-------------|
|------------------------|---------------------------|
|------------------------|---------------------------|
|
| Gtr III
| E  E  E    E E  E E  E    E  E  E    E  E  E  E  E
|-----------12-----------|------------12-------------|
|---12-----------12------|----12------------12-------|
|-9-----9------9----9-11-|--9-----9-------9-----9-11-|
|------------------------|---------------------------|
|------------------------|---------------------------|
|------------------------|---------------------------|


  E  E  Q      E  E Q       E  E    E  E  E  E  Q
|------------------------|-----------------------------|
|------------------------|-----------------------------|
|------------------------|-----------------------------|
|------------------------|-----------------------------|
|------------------------|-----------------------------|
|-7--7--7------7--7-7----|-10-10---10-10-10-10-10\-----|
|
| E  E  S S  E E  E E  E    E  S S  E  E  E  E  E   E
|------------------------|-----------------------------|
|------------------------|-----------------------------|
|---11-11p9----9-11-9-11-|----11p9-----9-11--9-11---9--|
|-----------11-----------|---------11------------------|
|------------------------|-----------------------------|
|------------------------|-----------------------------|
|
| E  E  E    E E  E E  E    E  E    E  E  E  E  E   E
|------------------------|-----------------------------|
|------------------------|-----------------------------|
|-9-----9------9--9-9-11-|--9--9-------9--------9--11--|
|---11------11-----------|---------11----11-11---------|
|------------------------|-----------------------------|
|------------------------|-----------------------------|


   E    E E  E E  E Q       E    E  E  E  E  E  Q
|------------------------|---------------------------|
|------------------------|---------------------------|
|------------------------|---------------------------|
|------------------------|---------------------------|
|------------------------|---------------------------|
|--2----2-2--2-2--2-2S===|=12---12-12-12-12-12-12S===|
|
|  S S  E E  E E  E E  E    S S  E  E  E  E  E  E  E
|------------------------|---------------------------|
|------------------------|---------------------------|
|-11p9----9-11-9-11-9-11-|-11p9-----9-11--9-11--9-11-|
|------11----------------|------11-------------------|
|------------------------|---------------------------|
|------------------------|---------------------------|
|
|  E    E E  E E  E E  E    E    E  E  E  E  E  E  E
|-----------12-----------|------------12-------------|
|------12--------12------|------12----------12-------|
|--9------9----9----9-11-|--9-------9-----9-----9-11-|
|------------------------|---------------------------|
|------------------------|---------------------------|
|------------------------|---------------------------|


                                          D.S. al Coda
   E    E Q    E  E Q       E  E    E  E  E  E  Q
|------------------------|-----------------------------|
|------------------------|-----------------------------|
|------------------------|-----------------------------|
|------------------------|-----------------------------|
|------------------------|-----------------------------|
|--7----7-7----7--7-7----|-10-10---10-10-10-10-10\-----|
|
|  S S  E E  E E  E E  E    E  S S  E  E  E  E  E   E
|------------------------|-----------------------------|
|------------------------|-----------------------------|
|-11p9----9-11-9-11-9-11-|----11p9-----9-11--9-11---9--|
|------11----------------|---------11------------------|
|------------------------|-----------------------------|
|------------------------|-----------------------------|
|
|  E    E E  E E  E E  E    E  E    E  E  E  E  E   E
|------------------------|-----------------------------|
|------------------------|-----------------------------|
|--9------9----9--9-9-11-|--9--9-------9--------9--11--|
|------11---11-----------|---------11----11-11---------|
|------------------------|-----------------------------|
|------------------------|-----------------------------|


 Guitar Solo
  &
  N.C.(F#m)
  Gtr IV
   E    E   S S  E    E   E  E    E       E    E    S  S  E  E    E  E  E
|------------------------------------|-------------------------------------|
|------------------------------------|-------------------------------------|
|-------9--11p9-------9--11--9---11--|--------11---11p=9-----9---11--9-11--|
|---------------11-------------------|-------------------11----------------|
|------------------------------------|-------------------------------------|
|------------------------------------|-------------------------------------|
|
| Gtr III
|  E    Q        E    Q      E    E      +E    E    Q        E    Q     E
|-----<12>----------<12>--------<12>-|-(<12>)-----<12>----------<12>-------|
|------------------------------------|-------------------------------------|
|------------------------------------|-------------------------------------|
|------------------------------------|-------------------------------------|
|-<9>-----------<9>---------<9>------|--------<9>-----------<9>--------<9>-|
|------------------------------------|-------------------------------------|


   E    E   S S  E    E   E  E    E       E    S  S   E  E  E    E   E  E
|------------------------------------|--------------------------------------|
|------------------------------------|--------------------------------------|
|------11--11p9-------9--11--9---11--|--------11p=9------9-11----9--11--9---|
|---------------11-------------------|---------------11---------------------|
|------------------------------------|--------------------------------------|
|------------------------------------|--------------------------------------|
|
|  E    Q        E    Q      E    E      +E    E      Q     E    Q      E
|-----<12>----------<12>--------<12>-|-(<12>)-------<12>-------<12>---------|
|------------------------------------|--------------------------------------|
|------------------------------------|--------------------------------------|
|------------------------------------|--------------------------------------|
|-<9>-----------<9>---------<9>------|--------<9>----------<9>---------<9>--|
|------------------------------------|--------------------------------------|


   S  S   E  E  E    E   E  E    E       S   S  E    E   E  E    E  E  E
|-----------------------------------|-------------------------------------|
|-----------------------------------|-------------------------------------|
|-11p=9------9-11----9--11--9---11--|---11p==9-------9--11--9---11--9-11--|
|--------11-------------------------|----------11-------------------------|
|-----------------------------------|-------------------------------------|
|-----------------------------------|-------------------------------------|
|
|  E      Q     E    Q      E    E      +E      E    Q      E    Q     E
|-------<12>-------<12>--------<12>-|-(<12>)-------<12>--------<12>-------|
|-----------------------------------|-------------------------------------|
|-----------------------------------|-------------------------------------|
|-----------------------------------|-------------------------------------|
|-<9>----------<9>---------<9>------|----------<9>---------<9>--------<9>-|
|-----------------------------------|-------------------------------------|


   S  S   E  E  E    E   E  E    E       E    S  S   E  E  E    E   E  E
|-----------------------------------|--------------------------------------|
|-----------------------------------|--------------------------------------|
|-11p=9------9-11----9--11--9---11--|--------11p=9------9-11----9--11--9---|
|--------11-------------------------|---------------11---------------------|
|-----------------------------------|--------------------------------------|
|-----------------------------------|--------------------------------------|
|
|  E      Q     E    Q      E    E      +E    E      Q     E    Q      E
|-------<12>-------<12>--------<12>-|-(<12>)-------<12>-------<12>---------|
|-----------------------------------|--------------------------------------|
|-----------------------------------|--------------------------------------|
|-----------------------------------|--------------------------------------|
|-<9>----------<9>---------<9>------|--------<9>----------<9>---------<9>--|
|-----------------------------------|--------------------------------------|


     S  S   E  E  E    E   E  E    E       S   S  E    E   E   E    E  E  E
||------------------------------------|--------------------------------------|
||o-----------------------------------|--------------------------------------|
||--11p=9------9-11----9--11--9---11--|---11p==9-------9--11---9---11--9-11--|
||---------11-------------------------|----------11--------------------------|
||o-----------------------------------|--------------------------------------|
||------------------------------------|--------------------------------------|
|
|    E      Q     E    Q      E    E      +E      E    Q       E    Q     E
||--------<12>-------<12>--------<12>-|-(<12>)-------<12>---------<12>-------|
||o-----------------------------------|--------------------------------------|
||------------------------------------|--------------------------------------|
||------------------------------------|--------------------------------------|
||o-<9>----------<9>---------<9>------|----------<9>----------<9>--------<9>-|
||------------------------------------|--------------------------------------|
|
|   Gtr V
|    Q.           Q.          Q            Q.              Q.          Q
||------------------------------------|--------------------------------------|
||o-----------------------------------|--------------------------------------|
||------------------------------------|--------------------------------------|
||------------------------------------|--------------------------------------|
||o-----------------------------------|--------------------------------------|
||---2------------2-----------2-------|----9---------------9-----------9-----|


   S  S   E  E  E    E   E  E    E       E    S  S   E  E   E    E   E  E
|-----------------------------------|---------------------------------------||
|-----------------------------------|--------------------------------------o||
|-11p=9------9-11----9--11--9---11--|--------11p=9------9--11----9--11--9---||
|--------11-------------------------|---------------11----------------------||
|-----------------------------------|--------------------------------------o||
|-----------------------------------|---------------------------------------||
|
|  E      Q     E    Q      E    E      +E    E      Q      E    Q      E
|-------<12>-------<12>--------<12>-|-(<12>)-------<12>--------<12>---------||
|-----------------------------------|--------------------------------------o||
|-----------------------------------|---------------------------------------||
|-----------------------------------|---------------------------------------||
|-<9>----------<9>---------<9>------|--------<9>-----------<9>---------<9>-o||
|-----------------------------------|---------------------------------------||
|
|  Q.           Q.          Q            Q.             Q.           Q
|-----------------------------------|---------------------------------------||
|-----------------------------------|--------------------------------------o||
|-----------------------------------|---------------------------------------||
|-----------------------------------|---------------------------------------||
|-----------------------------------|--------------------------------------o||
|--7------------7-----------7-------|----5--------------5------------5------||


  Gtr IV
   S S  E E  E  E  E E  E    S S  E E  E  E  E E  E
|-------------------------|-------------------------|
|-------------------------|-------------------------|
|-11p9----9-11--9-11-9-11-|-11p9----9-11--9-11-9-11-|
|------11-----------------|------11-----------------|
|-------------------------|-------------------------|
|-------------------------|-------------------------|
|
| Gtr V
|  Q.        Q.      Q       Q.        Q.      Q
|-------------------------|-------------------------|
|-------------------------|-------------------------|
|-------------------------|-------------------------|
|-------------------------|-------------------------|
|-------------------------|-------------------------|
|--2---------2-------2----|--9---------9-------9----|


   S S  E E  E  E  E E  E   E   E  E  E  E  E E  E
|-------------------------|------------------------|
|-------------------------|----12-10---------------|
|-11p9----9-11--9-11-9-11-|----------11--9-11-9-11-|
|------11-----------------|------------------------|
|-------------------------|------------------------|
|-------------------------|------------------------|
|
|  Q.        Q.      Q      Q.        Q.      Q
|-------------------------|------------------------|
|-------------------------|------------------------|
|-------------------------|------------------------|
|-------------------------|------------------------|
|-------------------------|------------------------|
|--7---------7-------7----|-5---------5-------5----|


   S S  E E  E  E  E E  E    S S  E E  E  E  E E  E
|-------------------------|-------------------------|
|-------------------------|-------------------------|
|-11p9----9-11--9-11-9-11-|-11p9----9-11--9-11-9-11-|
|------11-----------------|------11-----------------|
|-------------------------|-------------------------|
|-------------------------|-------------------------|
|
|  Q.        Q.      Q       Q.        Q.      Q
|-------------------------|-------------------------|
|-------------------------|-------------------------|
|-------------------------|-------------------------|
|-------------------------|-------------------------|
|-------------------------|-------------------------|
|--2---------2-------2----|--9---------9-------9----|


                           3/4
   S S  E E  E  E  E E  E   E   S S  E E   E E
|-------------------------|--------------------|
|-------------------------|--------------------|
|-11p9----9-11--9-11-9-11-|----11p9----9--11-9-|
|------11-----------------|---------11---------|
|-------------------------|--------------------|
|-------------------------|--------------------|
|
|  Q.        Q.      Q      Q.         Q.
|-------------------------|--------------------|
|-------------------------|--------------------|
|-------------------------|--------------------|
|-------------------------|--------------------|
|-------------------------|--------------------|
|--7---------7-------7----|-5----------5-------|


 Pre-Chorus
  N.C.(F#5)
 4/4
  E   E   E   E   S S E   E   E     S S E   S S E    E    E   E   E
|---------------------------------|-----------------------------------|
|---------------------------------|-----------------------------------|
|---------------------------------|-----------------------------------|
|---------------------------------|-----------------------------------|
|---------------------------------|-----------------[4]---2---4---2---|
|-0---2---0---2---x-x-2---0---2---|-x-x-2---x-x-2---------------------|
|
| PM-------------------------------------------------------------------
| S S S S S S S S S S S S S S S S   S S S S S S S S  S  S S S S S S S
|---------------------------------|-----------------------------------|
|---------------------------------|-----------------------------------|
|---------------------------------|-----------------------------------|
|---------------------------------|-----------------------------------|
|---------------------------------|------------------4--4-2-2-4-4-2-2-|
|-0-0-2-2-0-0-2-2-2-2-2-2-0-0-2-2-|-0-0-2-2-2-2-2-2-------------------|


  E   E   E   E   S S E   E   E     S S E   S S E    E    E   E   E
|---------------------------------|-----------------------------------|
|---------------------------------|-----------------------------------|
|---------------------------------|-----------------------------------|
|---------------------------------|-----------------------------------|
|---------------------------------|-----------------[4]---2---4---2---|
|-0---2---0---2---x-x-2---0---2---|-x-x-2---x-x-2---------------------|
|
|-------------------------------------------------------------------|
| S S S S S S S S S S S S S S S S   S S S S S S S S  S  S S S S S S S
|---------------------------------|-----------------------------------|
|---------------------------------|-----------------------------------|
|---------------------------------|-----------------------------------|
|---------------------------------|-----------------------------------|
|---------------------------------|------------------4--4-2-2-4-4-2-2-|
|-0-0-2-2-0-0-2-2-2-2-2-2-0-0-2-2-|-0-0-2-2-2-2-2-2-------------------|


  E   E   E   E   S S E   E   E     S S E   S S E    E    E   E   E
|---------------------------------|-----------------------------------|
|---------------------------------|-----------------------------------|
|---------------------------------|-----------------------------------|
|---------------------------------|-----------------------------------|
|---------------------------------|-----------------[4]---2---4---2---|
|-0---2---0---2---x-x-2---0---2---|-x-x-2---x-x-2---------------------|
|
| PM-------------------------------------------------------------------
| S S S S S S S S S S S S S S S S   S S S S S S S S  S  S S S S S S S
|---------------------------------|-----------------------------------|
|---------------------------------|-----------------------------------|
|---------------------------------|-----------------------------------|
|---------------------------------|-----------------------------------|
|---------------------------------|------------------4--4-2-2-4-4-2-2-|
|-0-0-2-2-0-0-2-2-2-2-2-2-0-0-2-2-|-0-0-2-2-2-2-2-2-------------------|


  E   E   E   E   S S E   E   E     S S E   S S E    E    E   E   E
|---------------------------------|-------------------------------------|
|---------------------------------|-------------------------------------|
|---------------------------------|-------------------------------------|
|---------------------------------|-------------------------------------|
|---------------------------------|-----------------[4]---2---4---2-----|
|-0---2---0---2---x-x-2---0---2---|-x-x-2---x-x-2-----------------------|
|
|-------------------------------------------------------------------|
| S S S S S S S S S S S S S S S S   S S S S S S S S  S  S S S S S S S
|---------------------------------|-------------------------------------|
|---------------------------------|-------------------------------------|
|---------------------------------|-------------------------------------|
|---------------------------------|-------------------------------------|
|---------------------------------|------------------4--4-2-2-4-4-2-2---|
|-0-0-2-2-0-0-2-2-2-2-2-2-0-0-2-2-|-0-0-2-2-2-2-2-2---------------------|


 Out-Chorus
  E5F#E5F#5     E5F#5       E5F#B5A5B5A5
  Gtrs I, II
  E E E E S S E E E   S S E E E E E E E
|-------------------|-------------------|
|-------------------|-------------------|
|-------------------|-----------4-2-4-2-|
|-2-4-2-4-x-x-4-2-4-|-x-x-4-2-4-4-2-4-2-|
|-2-4-2-4-x-x-4-2-4-|-x-x-4-2-4---------|
|-0-2-0-2-x-x-2-0-2-|-x-x-2-0-2---------|


  E5F#E5F#5     E5F#5       E5F#B5A5B5A5
  E E E E S S E E E   S S E E E E E E E
|-------------------|--------------------|
|-------------------|--------------------|
|-------------------|-----------4-2-4-2--|
|-2-4-2-4-x-x-4-2-4-|-x-x-4-2-4-4-2-4-2--|
|-2-4-2-4-x-x-4-2-4-|-x-x-4-2-4----------|
|-0-2-0-2-x-x-2-0-2-|-x-x-2-0-2----------|


  E5F#E5F#5     E5F#5       E5F#B5A5B5A5
  E E E E S S E E E   S S E E E E E E E
|-------------------|-------------------|
|-------------------|-------------------|
|-------------------|-----------4-2-4-2-|
|-2-4-2-4-x-x-4-2-4-|-x-x-4-2-4-4-2-4-2-|
|-2-4-2-4-x-x-4-2-4-|-x-x-4-2-4---------|
|-0-2-0-2-x-x-2-0-2-|-x-x-2-0-2---------|


  E5F#E5F#5     E5F#5       E5F#B5A5B5A5
  E E E E S S E E E   S S E E E E E E E
|-------------------|--------------------|
|-------------------|--------------------|
|-------------------|-----------4-2-4-2--|
|-2-4-2-4-x-x-4-2-4-|-x-x-4-2-4-4-2-4-2--|
|-2-4-2-4-x-x-4-2-4-|-x-x-4-2-4----------|
|-0-2-0-2-x-x-2-0-2-|-x-x-2-0-2----------|


    F#m11               Asus2
    Gtr I
    E E E E +E  E Q     H       E E E E
||--------------------|-----------------|
||o-------0-(0)-------|-----------------|
||--------------0-0---|-2-------2-2-0-0-|
||--------------------|-----------------|
||o-------------------|-----------------|
||--0h2-2-------------|-----------------|
|
|   E E E E  E  E E E   E E E E E E E E
||--------------------|-0-0-0-0-0-0-0-0-|
||o-------------------|-0-0-0-0-0-0-0-0-|
||--------------------|-x-x-x-x-x-x-x-x-|
||----4-4-4--4--4-4-4-|-7-7-7-7-7-7-7-7-|
||o---4-4-4--4--4-4-4-|-7-7-7-7-7-7-7-7-|
||----2-2-2--2--2-2-2-|-5-5-5-5-5-5-5-5-|


  F#m11               Asus2
  E E E E +E  E Q     W                3x
|-------------------|------------------||
|-------0-(0)-------|-----------------o||
|-------------0-0---|-2----------------||
|-------------------|------------------||
|-------------------|-----------------o||
|-0h2-2-------------|------------------||
|
| E E E E  E  E E E   E E E E E E E E  3x
|-------------------|-0-0-0-0-0-0-0-0--||
|-------------------|-0-0-0-0-0-0-0-0-o||
|-------------------|-x-x-x-x-x-x-x-x--||
|---4-4-4--4--4-4-4-|-7-7-7-7-7-7-7-7--||
|---4-4-4--4--4-4-4-|-7-7-7-7-7-7-7-7-o||
|---2-2-2--2--2-2-2-|-5-5-5-5-5-5-5-5--||


Duration Legend
---------------
W - whole; H - half; Q - quarter; E - 8th; S - 16th; T - 32nd; X - 64th; a - acciaccatura
+ - note tied to previous; . - note dotted; .. - note double dotted
Uncapitalized letters represent notes that are staccato (1/2 duration)
Irregular groupings are notated above the duration line
Duration letters will always appear directly above the note/fret number it represents the
duration for.  Duration letters with no fret number below them represent rests.  Multi-
bar rests are notated in the form Wxn, where n is the number of bars to rest for.  Low
melody durations appear below the staff

Tablature Legend
----------------
 h   - hammer-on
 p   - pull-off
 b   - bend
 pb  - pre-bend
 r   - bend release (if no number after the r, then release immediately)
 /\  - slide into or out of (from/to "nowhere")
 s   - legato slide
 S   - shift slide
  - natural harmonic
[n]  - artificial harmonic
n(n) - tapped harmonic
 ~   - vibrato
 tr  - trill
 T   - tap
 TP  - trem. picking
 PM  - palm muting
\n/  - tremolo bar dip; n = amount to dip
 \n  - tremolo bar down
 n/  - tremolo bar up
/n\  - tremolo bar inverted dip
 =   - hold bend; also acts as connecting device for hammers/pulls
 <>  - volume swell (louder/softer)
 x   - on rhythm slash represents muted slash
 o   - on rhythm slash represents single note slash

Misc Legend
-----------
 |  - bar
||  - double bar
||o - repeat start
o|| - repeat end
*|  - double bar (ending)
 :  - bar (freetime)
 $  - Segno
 &  - Coda
Tempo markers -  = BPM(8/16=s8/s16), where s8 = swing 8ths, s16 = swing 16ths


Добавлено: 02.05.2012
Другие материалы по этой песне:

Страница создана 10.04.2012
http://primanota.ru/rush/nocturne-chords.htm
Привет, Гость.
Предлагаем пройти революционный курс по гитаре.
Подарок от PrimaNota.Ru, забирай!