PrimaNota.ru - самый крупный в мире бесплатный архив песенных текстов, аккордов, табулатур и нот


Rush - Moving Pictures - таба, видео

Регистрация Запомнить меня
Войти через:  Facebook Google Twitter Vk Yandex Mail.ru

Rush - Moving Pictures - таба, видео

Печатать
Просмотров: 93
Rush
Moving Pictures
1981

This is an album tab COMPILED by me NOT TABBED.
All the credits goes to the following: C.D. Bruce, Jimmy Pena, davidgilmour, 
and B A R K E R.

Moving Pictures Track List
1. Tom Sawyer
2. Red Barchetta
3. YYZ
4. Limelight
5. The Camera Eye
6. Witch Hunt
7. Vital Signs


1.  Tom Sawyer

Rush: Tom Sawyer
From the album Moving Pictures (Mercury Records)
Copyright 1981 Core Music Publishing
Music by Lee and Lifeson
Lyrics by Dubois and Peart

Transcription by:
     C. D. Bruce

Previously Transcribed by:
     James Bender
     Jimmy Pena
     Tony Kennedy
     Jim Cirronella ,
     Sean Carroll .

  All synth arrangements for guitar are located at the end of the tab file.

  The song opens with an Oberhiem "Sweep" sound concurrent with a Moog
  Taurus Pedal bass sound.

- Guitar rest for 8 measures -
          E                                   Dsus2
  e q   e hw                          e q   e hw
|-----------------|-----------------|---------0-------|-----------------|
|---------9-------|-----------------|---------5-------|-----------------|
|o--------9-------|-----------------|---------7-------|-----------------|
|o--------9-------|-----------------|---------7-------|-----------------|
|---------7-------|-----------------|-----------------|-----------------|
|-0-0---0---------|-----------------|-0-0---0---------|-----------------|

          A7sus4                              Cadd9
  e q   e hw                          e q   e hw
|---------3-------|-----------------|---------0-------|-----------------|
|---------3-------|-----------------|---------3-------|-----------------|
|---------2-------|-----------------|---------5-------|----------------o|
|---------2-------|-----------------|---------5-------|----------------o|
|---------0-------|-----------------|-----------------|-----------------|
|-0-0---0---------|-----------------|-0-0---0---------|-----------------|

                      The   riv-er...
  Csus2 G/B   Asus4   Csus2 G/B Asus4         E
  Q     Q     Q       Q     q   q     e q   e he          Q     q   q
|-----------------|-----------------|---------4-------|---4-----4---4---|
|-3-----3-----3---|---3-----3---3---|---------5-------|---5-----5---5---|
|-0-----0-----2---|---0-----0---2---|---------4-------|---4-----4---4---|
|-x-----x-----x---|---x-----x---2---|-----------------|-----------------|
|-3-----2-----0---|---3-----2---0---|-----------------|-----------------|
|-----------------|-----------------|-0-0---0---------|-----------------|

          Dsus2                               A7sus4      D/E   A7sus4
  e q   e he          Q     q   q     e q   e he          Q     h
|---------0-------|---0-----0---0---|---------3-------|---2-----3-------|
|---------5-------|---5-----5---5---|---------3-------|---3-----3-------|
|---------7-------|---7-----7---7---|---------2-------|---2-----2-------|
|---------7-------|---7-----7---7---|---------2-------|---2-----2-------|
|-----------------|-----------------|---------0-------|-----------------|
|-0-0---0---------|-----------------|-0-0---0---------|-----------------|

                                      And what you say about his company...
  Csus2 G/B   A7sus4  G     G/F#E     Repeat 4 times
  Q     Q     Q       Q     q   q     Q   h he  w h     Q   h he  w h
|-3-----3-----3---|---3-----3-------|-----------------|-----------------|
|-3-----3-----3---|---3-----3-------|-----0-------0---|-----0-------0---|
|-0-----0-----2---|---0-----0-------|o----------4-----|-----------4-----|
|-x-----x-----2---|---0-----0---2---|o----------------|-----------------|
|-3-----2-----0---|---x-----x---2---|-----------------|-------0---------|
|-----------------|---3-----2---0---|-0-----2---------|-3---------------|

                   _________________ _________________
                  | 1st-3rd ending  | 4th ending      | Bsus2
  Q   Q h   hew   | Q   H Q     q   | Q   H Q     q   | wH
|-----------------|-----------------|-----------------|-----------------|
|-----0-------0---|-----0-----------|-----0-----------|-2---------------|
|-----------4-----|----------------o|-------------4--o|-4---------------|
|-2---------------|----------------o|-------------2--o|-4---------------|
|-------3---------|-2-----0---------|-2-----0-----0---|-2---------------|
|-----------------|-------------3---|-----------------|-----------------|

                                                        A5
              q     H           q     wH          q     q   q   q   q
|-----------------|-----------------|-----------------|-----------------|
|-------------2---|-2-----------2---|-2-----------2\--|-----------------|
|-------------4---|-4-----------4---|-4-----------4\--|-2---2---2---2---|
|-------------4---|-4-----------4---|-4-----------4\--|-2---2---2---2---|
|-------------2---|-2-----------2---|-2-----------2\--|-0---0---0---0---|
|-----------------|-----------------|-----------------|-----------------|

  Gsus2   A5  B5                      A5                Gsus2
  q   q   q   q         q   q   q     q   q   q   q     q   h   h   q
|-----------------|-----------------|-----------------|-----------------|
|-----------------|-----------------|-----------------|-----------------|
|-2---2---2---4---|-----4---4---4---|-2---2---2---2---|-2-------2-------|
|-0---0---2---4---|-----4---4---4---|-2---2---2---2---|-0---0-------0---|
|-x---x---0---2---|-----2---2---2---|-0---0---0---0---|-x---------------|
|-3---3-----------|-----------------|-----------------|-3---------------|

  A5                Eno3rd
  w                 +       +
|-----------------|---------0-------|-----------------|-----------------|
|-----------------|---------0-------|-----------------|-----------------|
|-2---------------|---------4-------|-----------------|-----------------|
|-2---------------|-2-------2-------|-----------------|-----------------|
|-0---------------|-2---------------|-----------------|-----------------|
|-----------------|-0---------------|-----------------|-----------------|

- Guitar rests for 13 measures -

  Repeat 4 times
  w               Q     q   q     e e e e e q     q   e e e e e
|---------------|---------------|---------------|---------------|
|---------------|---------------|---------------|---------------|
7o--------------|--------------o|---------------|---------------|
8o2-------------|-4---------4--o|-7---6---4-----|-7-----6-------|
|-2-------------|-4-----4-------|---9---7---5---|-----9---7-5---|
|-0-------------|-2-------------|---------------|-------------7-|

  e e e e e q     q   e e e e e
|---------------|---------------|---------------|---------------|
|---------------|---------------|---------------|---------------|
|---------------|---------------|---------------|---------------|
|-7---6---4-----|-7-----6-------|---------------|---------------|
|---9---7---5---|-----9---7-5---|---------------|---------------|
|---------------|-------------7-|---------------|---------------|

- Guitar solo (tab expanded for clarity 7/8 except where noted) -
  Heavily overdriven with short delay to get a "doubling" effect.

  h               Q             eHw
|-----------------------------|-----------------------------|
|-----------------------------|-----------------------------|
|-1-----------/---4-------/---|-7-----~---------------------|
|-----------------------------|-----------------------------|
|-----------------------------|-----------------------------|
|-----------------------------|-----------------------------|

                  s s e   e     q       s s e   e   e
|------------------p----------|----------h-p----------------|
|-----------------9-7-9---10--|-9-------7-9-7---------------|
|-----------------------------|-----------------7-/-9-------|
|-----------------------------|-----------------------------|
|-----------------------------|-----------------------------|
|-----------------------------|-----------------------------|

          S  S S  e             q       q       q
|-----------p-----------------|-------------------------|
|---------10-9-10-12\---------|-------------------------|
|-----------------------------3-------------------------|
|-----------------------------4-------------------------|
|-----------------------------|-----------------5-------|
|-----------------------------|-5-------7---------------|

  h               s s q         eH
|--1---------------p----------|---2-------------------------|
|-5^--------------3-0-2-------|[3]^-------------------------|
|-----------------------------|-----------------------------|
|-----------------------------|-----------------------------|
|-----------------------------|-----------------------------|
|-----------------------------|-----------------------------|

          e   e   e       e     e   e   s s s   e   e   eq
|-----------------------------|-----------------------------|
|--------[5]-[7]-[5]-----[5]--|-------------------------5---|
|-----------------------------|-6--[7]--6---4---6---7-------|
|-----------------------------|-----------------------------|
|-----------------------------|-----------------------------|
|-----------------------------|-----------------------------|

                      e   s s   e   e   e         s e   e
|---------------------------p-|-----12--------------h-------|
|---------------------15--1512|-14------14--------1215--12--|
|-----------------------------|-----------------------------|
|-----------------------------|-----------------------------|
|-----------------------------|-----------------------------|
|-----------------------------|-----------------------------|

  e   e   e   q                 q       q       q
|---------12------------------|-------------------------|
|-12--14------14--------------|-----------------15------|
|-----------------------------3-14------16--------------|
|-----------------------------4-------------------------|
|-----------------------------|-------------------------|
|-----------------------------|-------------------------|

  Q           q       e   qw
                            1
|---2-----------r---------16^-|-----------------------------|
|-15^-------(15)^-----17------|-----------------------------|
|-----------------------------|-----------------------------|
|-----------------------------|-----------------------------|
|-----------------------------|-----------------------------|
|-----------------------------|-----------------------------|

            S  S  S  S  S  S    S  S  S  S  S  S  S  e   E
         r                                                 2
|----(16)---16-17-19-17-16-17-|-19-17-16-17-16-19-17-16--19^|
|-----------------------------|-----------------------------|
|-----------------------------|-----------------------------|
|-----------------------------|-----------------------------|
|-----------------------------|-----------------------------|
|-----------------------------|-----------------------------|

      e   e   e   Q             q       e   e   e   e
        2   2   2   2             2       2   2   2   2
|-----19^-19^-19^-19^---------|-19^-----19^-19^-19^-19^-----|
|-----------------------------|-----------------------------|
|-----------------------------|-----------------------------|
|-----------------------------|-----------------------------|
|-----------------------------|-----------------------------|
|-----------------------------|-----------------------------|

  q       q       Q             q       e   e   e   e
    2       2       2              2      2   2   2   2
|-19^-----19^-----19^---------|(19)^----19^-19^-19^-19^\----|
|-----------------------------|-----------------------------|
|-----------------------------|-----------------------------|
|-----------------------------|-----------------------------|
|-----------------------------|-----------------------------|
|-----------------------------|-----------------------------|

- Tab returned to normal width -

  e e e e e q     q   e e e e e   e e e e e q     q   q   q   q
|---------------|---------------|---------------|-----------------|
|---------------|---------------|---------------|-----------------|
7---------------|---------------|---------------4-----------------|
8-7---6---4-----|-7-----6-------|-7---6---4-----4-----------------|
|---9---7---5---|-----9---7-5---|---9---7---5---|---------5---7---|
|---------------|-------------7-|---------------|-5---7-----------|

          E                                   Dsus2
  e q     hw                          e q     hw
|-----------------|-----------------|---------0-------|-----------------|
|---------9-------|-----------------|---------5-------|-----------------|
|o--------9-------|-----------------|---------7-------|-----------------|
|o--------9-------|-----------------|---------7-------|-----------------|
|---------7-------|-----------------|-----------------|-----------------|
|-0-0---0---------|-----------------|-0-0---0---------|-----------------|

          A7sus4                              Cadd9
  e q     hw                          e q     hw
|---------3-------|-----------------|---------0-------|-----------------|
|---------3-------|-----------------|---------3-------|-----------------|
|---------2-------|-----------------|---------5-------|----------------o|
|---------2-------|-----------------|---------5-------|----------------o|
|---------0-------|-----------------|-----------------|-----------------|
|-0-0---0---------|-----------------|-0-0---0---------|-----------------|

                      But   change...
  Csus2 G/B   Asus    Csus2 G/B Asus4         E
  Q     Q     Q       Q     q   q     e q   e he          Q     e e q
|-----------------|-----------------|---------4-------|---4-----4-5-4---|
|-3-----3-----3---|---3-----3---3---|---------5-------|---5-----5-5-5---|
|-0-----0-----2---|---0-----0---2---|---------4-------|---4-----4-4-4---|
|-x-----x-----2---|---x-----x---2---|-----------------|-----------------|
|-3-----2-----0---|---3-----2---0---|-----------------|-----------------|
|-----------------|-----------------|-0-0---0---------|-----------------|

          Dsus2                               A7sus4      D/E   A7s4D/E
  e q   e he          Q     q   q     e q   e he          Q     q   q
|-----------------|-----------------|---------3-------|---2-----3---2---|
|---------5-------|---5-----5---5---|---------3-------|---3-----3---3---|
|---------7-------|---7-----7---7---|---------2-------|---2-----2---2---|
|---------7-------|---7-----7---7---|---------2-------|---2-----2---2---|
|---------5-------|---5-----5---5---|---------0-------|-----------------|
|-0-0---0---------|-----------------|-0-0---0---------|-----------------|

                                      What you say about his company...
  Cs2   G/B   A7sus4  G     G/F#E     Repeat 4 times
  Q     Q     Q       Q     q   q     Q   h he  w h     Q   h he  w h
|-3-----3-----3---|---3-------------|-----------------|-----------------|
|-3-----3-----3---|---3-------------|-----0-------0---|-----0-------0---|
|-0-----0-----2---|---0-----0-------|o----------4-----|-----------4-----|
|-x-----x-----2---|---0-----0---2---|o----------------|-----------------|
|-3-----2-----0---|---x-----x---2---|-----------------|-------0---------|
|-----------------|---3-----2---0---|-0-----2---------|-3---------------|

                   _________________ _________________
                  | 1st-3rd ending  | 4th ending      | Bsus2
  Q   Q h   hew   | Q   H Q     q   | Q   H Q   e q   | wH
|-----------------|-----------------|-----------------|-----------------|
|-----0-------0---|-----0-----------|-----0-----------|-2---------------|
|-----------4-----|----------------o|-----------4-4---|-4---------------|
|-2---------------|----------------o|-----------2-2---|-4---------------|
|-------3---------|-2-----0---------|-2-----0---0-0---|-2---------------|
|-----------------|-------------3---|-----------------|-----------------|

              The   world is...                         A5
              q     H           q     wH          q     q   q   q   q
|-----------------|-----------------|-----------------|-----------------|
|-------------2---|-2-----------2---|-2-----------2\--|-----------------|
|-------------4---|-4-----------4---|-4-----------4\--|-2---2---2---2---|
|-------------4---|-4-----------4---|-4-----------4\--|-2---2---2---2---|
|-------------2---|-2-----------2---|-2-----------2\--|-0---0---0---0---|
|-----------------|-----------------|-----------------|-----------------|

  Gs2     A5  B5                      A5                Gsus2
  q   q   q   q         q   q   q     q   q   q   q     q   h   h   q
|-----------------|-----------------|-----------------|-----------------|
|-----------------|-----------------|-----------------|-----------------|
|-2---2---2---4---|-----4---4---4---|-2---2---2---2---|-2-------2-------|
|-0---0---2---4---|-----4---4---4---|-2---2---2---2---|-0---0-------0---|
|-x---x---0---2---|-----2---2---2---|-0---0---0---0---|-x---------------|
|-3---3-----------|-----------------|-----------------|-3---------------|

  A5                Eno3rd
  w                 +       +
|-----------------|---------0-------|-----------------|-----------------|
|-----------------|---------0-------|-----------------|-----------------|
|-2---------------|---------4-------|-----------------|-----------------|
|-2---------------|-2-------2-------|-----------------|-----------------|
|-0---------------|-2---------------|-----------------|-----------------|
|-----------------|-0---------------|-----------------|-----------------|

- Guitar Rests for 7 measures -

  Eno 3rd         F#no3rd         Eno 3rd         F#no3rd
  q   q   q   e   Q     q   q     q   q   q   e   q   Q     q
|---------------|---------------|---------------|---------------|
|---------------|---------------|---------------|---------------|
7---------------|---------------|---------------|---------------|
8-2-------2---2-|-4---------4---|-2-------2---2-|-4---------4---|
|-2---2-------2-|-4-----4-------|-2---2-------2-|-4---4---------|
|-0-----------0-|-2-------------|-0-----------0-|-2-------------|

  Eno 3rd         F#no3rd         Eno 3rd         F#no3rd
  q   q   q   e   Q     q   q     q   q   q   e   q   q   q
|---------------|---------------|---------------|-------------|
|---------------|---------------|---------------|-------------|
|---------------|---------------|---------------3-------------|
|-2-------2---2-|-4---------4---|-2-------2---2-4-4-------4---|
|-2---2-------2-|-4-----4-------|-2---2-------2-|-4---4-------|
|-0-----------0-|-2-------------|-0-----------0-|-2-----------|

  Eno 3rd         F#no3rd         Eno 3rd         F#no3rd
  q   q   q   e   Q     q   q     q   q   q   e   Q     q     q
|---------------|---------------|---------------|---------------|
|---------------|---------------|---------------|---------------|
7---------------|---------------|---------------|---------------|
8-2-------2---2-|-4---------4---|-2-------2---2-|-4---------4---|
|-2---2-------2-|-4-----4-------|-2---2-------2-|-4-----4-------|
|-0-----------0-|-2-------------|-0-----------0-|-2-------------|

  Eno 3rd         F#no3rd         Eno 3rd         F#no3rd
  q   q   q   e   Q     q   q     q   q   q   e   Q     q     q
|---------------|---------------|---------------|---------------|
|---------------|---------------|---------------|---------------|
|---------------|---------------|---------------|---------------|
|-2-------2---2-|-4---------4---|-2-------2---2-|-4---------4---|
|-2---2-------2-|-4-----4-------|-2---2-------2-|-4-----4-------|
|-0-----------0-|-2-------------|-0-----------0-|-2-------------|

                                Start fade -------------------
  Eno 3rd         F#no3rd         Eno 3rd         F#no3rd
  q   q   q   e   q   q   q     q   q   q   e   Q     q     q
|---------------|-------------|---------------|---------------|
|---------------|-------------|---------------|---------------|
|---------------3-------------7---------------|---------------|
|-2-------2---2-4-4-------4---8-2-------2---2-|-4---------4---|
|-2---2-------2-|-4---4-------|-2---2-------2-|-4-----4-------|
|-0-----------0-|-2-----------|-0-----------0-|-2-------------|

- - - - - - - - - - - - - - - -  -  -  -  -  -  -  -  -  -  -
  Eno 3rd         F#no3rd         Eno 3rd         F#no3rd
  q   q   q   e   Q     q   q     q   q   q   e   Q     q     q
|---------------|---------------|---------------|---------------|
|---------------|---------------|---------------|---------------|
|---------------|---------------|---------------|---------------|
|-2-------2---2-|-4---------4---|-2-------2---2-|-4---------4---|
|-2---2-------2-|-4-----4-------|-2---2-------2-|-4-----4-------|
|-0-----------0-|-2-------------|-0-----------0-|-2-------------|

  -   -    -    -     -     -      -      -       -         -
  Eno 3rd         F#no3rd         Eno 3rd         F#no3rd
  q   q   q   e   Q     q   q     q   q   q   e   q   q   q
|---------------|---------------|---------------|-------------|
|---------------|---------------|---------------|-------------|
|---------------|---------------|---------------3-------------|
|-2-------2---2-|-4---------4---|-2-------2---2-4-4-------4---|
|-2---2-------2-|-4-----4-------|-2---2-------2-|-4---4-------|
|-0-----------0-|-2-------------|-0-----------0-|-2-----------|


- Pre-guitar solo synth arranged for guitar -
  Repeat 8 times
  e e e e e q     q   e e e e e   e e e e e q     q   e e e e e
|---------------|---------------|---------------|---------------|
|---------------|---------------|---------------|---------------|
7o14--13--11----|-14----13--11-o7-14--13--11----|-14----13------|
8o--16--14--12--|-----16--14---o4---16--14--12--|-----16--141214|
|---------------|-------------14|---------------|---------------|
|---------------|---------------|---------------|---------------|

  e e e e e +
|---------------|---------------|---------------|---------------|
|---------------|---------------|---------------|---------------|
|-14--13--11----|---------------|---------------|---------------|
|---16--14--12--|---------------|---------------|---------------|
|---------------|---------------|---------------|---------------|
|---------------|---------------|---------------|---------------|


- Ending Synth arranged for guitar -
  e e e e QH                      +
|---------------|---------------|---------------|---------------|
|---------------|---------------|---------------|---------------|
|-14--13--11----|---------------|---------------|---------------|
|---16--14------|---------------|-14------------|---------------|
|---------------|---------------|---------------|---------------|
|---------------|---------------|---------------|---------------|

                  q   q   q     e e e e e w              S S
|---------------|-------------|---------------|-----------------|
|---------------|-------------|---------------|-----------------|
|---------------3---------11--7-14---13--11---|------------1411-|
|---------------4-----11------8----16--14-----|-----------------|
|---------------|-9-----------|---------------|-----------------|
|---------------|-------------|---------------|-----------------|

  +
|---------------|---------------|---------------|---------------|
|---------------|---------------|---------------|---------------|
|---------------|---------------|---------------|---------------|
|-14------------|---------------|---------------|---------------|
|---------------|---------------|---------------|---------------|
|---------------|---------------|---------------|---------------|

  e e e e e q     +
|-17--16--14----|---------------|---------------|---------------|
|---19--17--15--|-17------------|---------------|---------------|
7---------------|---------------|---------------|---------------|
4---------------|---------------|---------------|---------------|
|---------------|---------------|---------------|---------------|
|---------------|---------------|---------------|---------------|


A note about the "Taurus Pedal 'Sweep' sound" - this is actually an analog
synth (probably an Oberheim) playing octaves.  The resonance of the synth is
set high and filter is set to sweep from top to bottom.  Play the lowest E
on
the synth plus an octave above simultaneously and you'll get this sound.
Live, Alex triggers this sound with his pedals.  While it's probably just a
sampled sound now, in the good old days before MIDI, Alex had Moog Taurus
pedals interfaced with an Oberheim synth off-stage.  The Taurus pedals
didn't
actually make this sound but rather doubled it with a thick bass pedal tone
(or else the Taurus pedal settings would have had to be changed throughout
the
set and I don't believe that the pedals were programmable).


Lyrics

A modern-day warrior
Mean mean stride,
Today's Tom Sawyer
Mean mean pride.

Though his mind is not for rent,
Don't put him down as arrogant.
His reserve, a quiet defense,
Riding out the day's events.
The river.

And what you say about his company
Is what you say about society.
Catch the mist, catch the myth
Catch the mystery, catch the drift.

The world is, the world is,
Love and life are deep,
Maybe as his eyes are wide.

Today's Tom Sawyer,
He gets high on you,
And the space he invades
He gets by on you.

Guitar Solo

No, his mind is not for rent
To any god or government.
Always hopeful, yet discontent,
He knows changes aren't permanent,
But change is.

And what you say about his company
Is what you say about society.
Catch the witness, catch the wit,
Catch the spirit, catch the spit.

The world is, the world is,
Love and life are deep,
Maybe as his skies are wide.

Exit the warrior,
Today's Tom Sawyer,
He gets high on you,
And the energy you trade,
He gets right on to the friction of the day.


Tablature Contributors:
This transcription was created by C. D. Bruce (charlesdbruce@hotmail.com)
in the format described below.  It was previously transcribed by James
Bender and Jimmy Pena (jimmy_pena@juno.com).  Other significant
contributions were made by Tony Kennedy (TKennedy@buckeye.com), Jim
Cirronella (twozbar@verizon.net) and Sean Carroll (xamolleh@ix.netcom.com).
Special thanks to Tony Kennedy (tonykennedy@entermail.net) for the 1/2 speed
wav file of the guitar solo.  Special thanks to Rich Soto
(hrhkinglerxst@home.com) for the video footage.  Thanks to Keith H Nelson
(ob1gynob@hotmail.com) for identifying an error in the ending.


Disclaimer:
This tablature represents how the song is played as closely as reasonably
achievable to the studio recording.  Video footage was utilized as much
as possible to validate the information (Exit Station Left, LeStudio
version, A Show of Hands).  Alex Lifeson may have played it slightly
differently.


Revision History:
Revision 00:  No date information available.  Initial submittal by
              C. D. Bruce.
Revision 01:  07-15-1998.  Reformatted to condense tab.  Made changes
              to D chords and E chords, moved synth tab to the end
              of the file.
Revision 02:  09-02-1998.  Changed time signature in pre-solo and
              solo sections from 4/4 and 3/4 to 7/4.  Made some
              minor changes to the outro.
Revision 03:  09-03-1998.  Credited Rich Soto for video footage which
              was instrumental in creating this tablature.
Revision 04:  08-24-2001.  Changed opening chords and other associated
              chords based on discussions with Jim Cirronella.
Revision 05:  01-17-2002.  Changed various places from one measure of
              7/4 to two measures of 7/8.  Corrected ending to show
              the 3/4 measure in it.
Revision 06:  06-16-2003.  Fixed some more errors in the measures at
              the end.


Tablature Explanation:
NT   = Nashville Tuning is when the low E, A and D strings are replaced with
       lighter gauge strings and tuned one octave higher than normal.
|    = bar separating measures
~    = vibrato
x    = percussive note with no pitch; muted note
.    = staccato; mute the note immediately after striking it
h    = hammer
p    = pull
s    = slide (used when \ or / don't fit)
^    = bend string up to indicated pitch/fret shown in parenthesis ()
r    = release bend (string/fret may be indicated)
t    = fret board tap (not many of these with Rush)
/    = slide up
\    = slide down
x/   = pick slide up
x\   = pick slide down
<5  = natural harmonic (lightly touch the string at fret indicated)
[5]  = artificial harmonic (use thumb to follow through the pick attack)
(5)  = note sustained from previous measure
o    =\ repeat sign
o    =/
DC   = "Da capo" - means "from the head", when you see these initials
        you go back to the beginning of the piece of music.
DS   = "Dal segno" - means "from the sign", go back in the tabulature
        only as far as the (%) sign.
Coda = A passage at the end of a movement or composition that brings
       it to a formal close.
Al
Coda = means "to the tail", tells you that you must go to the end
          section which starts with the Coda sign (+).
RF   = repeat and fade
rit  = "ritardando" - Gradually slowing in tempo; retarding.

Other pertinent information:
  Tempo:  1/4 note = ???
  Tuning:  Standard [EADGBe].
  Key signature:
  Effects:  Overdrive, Chorus, Short Delay

2. Red Barchetta


Rush - Red Barchetta

        From the CD 'Moving Pictures'
                Written by Lee/Lifeson/Peart, inspired by 'A Nice Morning
                        Drive' by Richard S. Foster
                Mercury/Polygram Records 800048-2

	Standard tuning. The key is D, I think.

Jimmy Pena - jimmy@walrus.com

| = not a standard bar line; just used to separate music
~ = vibrato or held note
h = hammer on
p = pull off
s = slide
b = bend string up to indicated pitch/fret
r = release bend to indicated string/fret
/ = slide up from infinity
\ = slide down into infinity
<5 = natural harmonic (lightly touch the string at fret indicated)
[5] = artificial harmonic (use thumb to follow through the pick attack)

[Intro]
e:--------------------------------------|
B:--------------------------------------|
G:o-<12------------<12-------------o----|
D:o---------<7-----------<7--------o----|
A:------<7-----<12----<7-----<12--------|
E:--------------------------------------|

[Riff 1]
e:---------------------------------|
B:--------------------------<7-----|
G:o---<7-<5--------<7-<5----o------|
D:o----------<7----------------o---|
A:--<9-----------<9----------------|
E:---------------------------------|

** Note: There are many variations on these themes throughout the song.
		These are just the basic structures. Hold down the chord
		and arpeggate freely.

[Riff 2]
    Asus4			      Asus4/F#
e:---------------------------------|--------------------------------|
B:--------3--2------2------3---2---|--------3--2------2-----3-2-----|
G:------2--------2----2------------|------2--------2----2---------2-|
D:----2--------2--------2----------|----2--------2--------2-----2---|
A:--0------------------------------|--------------------------------|
E:---------------------------------|--2-----------------------------|

    Asus4/G                               Dsus2
e:-------------------------------------|--------0----------------0---|
B:---------3--2------2------3--2-------|------3---3----2-2-2-2h3-----|
G:-------2--------2----2------------2--|----2-------2----------------|
D:-----2--------2--------2--------2----|--0--------------------------|
A:-------------------------------------|-----------------------------|
E:--3----------------------------------|-----------------------------|

[Riff 3]
	   F						G
e:------|----1------1------1------1------1------1-------3--3--|
B:------|----1------1------1------1------1------1-------3--3--|
G:------|-----------------------------------------------4--4--|
D:------|-----------------------------------------------5--5--|
A:-3-2--|--------------------------------------------3--5--5--|
E:------|-1----0--0---0--1---0--0----0-1---0--0---0--1--3--3--|

[Riff 4]
   G  A    D				    G	A Asus4
e:-------------------|----------------------7--/9--10-9\--------|
B:-------------------|----------------------8--/10-10-10\-------|
G:---------2---------|-2--2----------2------7--/9--9--9\--------|
D:----2----0----2----|-0--0----2-----0--------------------------|
A:----0---------0----|---------0--------------------------------|
E:-3b---3b---3b---3b-|------3b---3b----3b-----------------------|


[Riff 5]
    F	  C				      F G
e:--1--1----------1--1----------1--1----------5s7--7--7--------|
B:--1--1--1--1----1--1--1--1----1--1--1--1----6s8--8--8--------|
G:--2--2--0--0----2--2--0--0----2--2--0--0----5s7--7--7--------|
D:--3--3--2--2----3--3--2--2----3--3--2--2---------------------|
A:--3--3--3--3----3--3--3--3----3--3--3--3---------------------|
E:-------------------------------------------------------------|

[Riff 6]
   G/D		 A/D
e:--7---------7---9------------9----7---------7-9----10---9-----------|
B:--8---------8---10-----------10---8---------8-10---10---10----------|
G:--7---------7---9------------9----7---------7-9----9----9-----------|
D:--0-0-0-0-0-0---0--0-0-0-0-0-0----0-0-0-0-0-0-0----0----0-----------|
A:--------------------------------------------------------------------|
E:--------------------------------------------------------------------|

[Riff 7] (technically starts with first Bb)
		   Bb  F		 C#   G#
e:-7-7-9--10-9--|-----------------------------------------------|
B:-8-8-10-10-10-|--3~--1--1---3~--1--1---6~--4--4---6~--4--4----|
G:-7-7-9--9--9--|--3~--2--2---3~--2--2---6~--5--5---6~--5--5----|
D:-0-0-0--0--0--|--3~--3--3---3~--3--3---6~--6--6---6~--6--6----|
A:--------------|--1~--3--3---1~--3--3---4~--6--6---4~--6--6----|
E:--------------|------1--1-------1--1-------4--4-------4--4----|

[Riff 8]
    E	B		  G    D
e:-------------------------------------------------------------------|
B:--9~--7--7---9~--7--7---12~---------------12-12-12-12-12-12-12-12--|
G:--9~--8--8---9~--8--8---12~--11-11-11-11--12-12-12-12-12-12-12-12--|
D:--9~--9--9---9~--9--9---12~--12-12-12-12--12-12-12-12-12-12-12-12--|
A:--7~--9--9---7~--9--9---10~--12-12-12-12--10-10-10-10-10-10-10-10--|
E:------7--7-------7--7--------10-10-10-10---------------------------|

Song progression:

[Intro] x5
[Riff 1] x4

[Riff 2] x1

[Riff 2] x2 /w lyrics:

	My uncle has a country place,
	that no one knows about.
	He says it used to be a farm
	before the Motor Law.

	And on Sundays, I elude the "Eyes"
	and hop the turbine freight -
	to far outside the wire
	where my white-haired uncle waits.

[Riff 3] x2
[Riff 4] x1

[Riff 4] x2 w/ lyrics:

	Jump to the ground as the turbo slows to cross the borderline.
	Run like the wind as excitement shivers up and down my spine.

[Riff 5] x2 w/ lyrics:

Down in his barn, my uncle preserved for me an old machine - for 50 odd
years. To keep it as new has been his dearest dream.

[Intro] x1

[Riff 2] x2 /w lyrics:

	I strip away the old debris
	that hides the shining car.
	a brilliant red Barchetta from a
	better vanished time.

	Fire up the willing engine,
	responding with a roar!
	Tires spitting gravel I commit
	my weekly crime.

e:----------------------------|
B:----------------------------|
G:----------------------------|
D:----------------------------|
A:----------------------------|
E:--------5-------------------|
  (Bend this note into infinity, mix with heavy flange)

[Riff 6] x2

[Riff 6] x3 /w lyrics:

	Wind in my hair, shifting and drifting.
	-- mechanical music,

[Riff 7] x1 /w lyrics:

	-- adrenalin surge.....

[Riff 7] x1 w/ lyrics:

   Well weathered leather, hot metal and oil, the scented country air.

[Riff 8] x1 w/ lyrics:

  Sunlight on chrome, the blur of the landscape, every nerve aware!

[Guitar Solo] (in 7/4 btw)

e:--9--7--5----------------|-------------------------------------------|
B:----------7--5-----------|-------------------------------------------|
G:---------------6--4------|--------------------------4-6-7--6-7-9-7---|
D:--------------------7--4-|--------------------4-6-7------------------|
A:-------------------------|--------------4-5-7------------------------|
E:-------------------------|-5~-5~-5~--7-------------------------------|

e:---------------------------------|-----------------------------------|
B:--------------7----------[7]h8p7-|---5-------------------------------|
G:-9b11r9-7--9----[9]b11~----------|-7---[7]-6--7b9r7b9--7-6---------6-|
D:---------------------------------|-------------------------7----/7---|
A:---------------------------------|---------------------------7-------|
E:---------------------------------|-----------------------------------|

e:-----------------|-----------------------------------|---------5-----|
B:--5--5-------5---|-7~--7~-7~--7~--7-7--------------7-|-------3-------|
G:-----------6---6-|---------------------6-6-----4s6---|-2s3s4---------|
D:-------5s7-------|-------------------------7---------|---------------|
A:-----------------|-----------------------------------|---------------|
E:-----------------|-----------------------------------|---------------|

e:-------5---------5--|---------10-------10-------12-----------14------|
B:-----3---------3----|-------10-------10------------------------------|
G:-3s4-----2s3s4------|--9s11-------11------11s12----12--12s14---------|
D:--------------------|------------------------------------------------|
A:--------------------|------------------------------------------------|
E:--------------------|------------------------------------------------|

[Riff 4] x1 (repeat first part 3 times)

[Riff 2] x2 /w lyrics:

	Suddenly ahead of me,
	across the mountain side,
	a gleaming alloy air car shoots towards
	me two lanes wide.

	I spin around with shrieking tires
	to run the deadly race;
	go screaming through the valley as
	another joins the chase.

[Riff 3] x2
[Riff 4] x1

[Riff 4] x2 w/ lyrics:

Drive like the wind, straining the limits of machine and man.
Laughing out loud with fear and hope, I've got a desperate plan.

[Riff 5] x2 w/ lyrics:

At the one lane bridge I leave the giants stranded at the riverside.
Race back to the farm to dream with my uncle at the fireside.

[Riff 5] x1

[Intro] x7
[Riff 1] x4

Repeat until fadeout:

e:------------------------------------------------------------|
B:------------------------------------------------------------|
G:---0-----2-------------0------------------------------------|
D:-----2--------------0------4--------------------------------|
A:-------------0---4------------------------------------------|
E:------------------------------------------------------------|

3. YYZ

Rush: YYZ
From the album Moving Pictures (Mercury Records)
Copyright 1981 Core Music Publishing
Music by Lee, Lifeson and Peart

Transcription by:
     C. D. Bruce (charlesdbruce@hotmail.com)

Previously Transcribed by/Contributors:
     Peter Seckel (Guitar For The Practicing Musician)
     Sean Carroll (xamolleh@ix.netcom.com)
     Jim Cirronella (twozbar@verizon.net)
     Tony Fabris (tfabris@oro.net)
     Sean Jones (seanj2112@earthlink.net)
     Tony Kennedy (tonykennedy@entermail.net)
     Jimmy Pena (jimmy_pena@juno.com)
     Rich Soto (hrhkinglerxst@home.com)
     See bottom of this file for more info.

Revision 04:  Submitted 06/18/2002.


The Origin of the title "YYZ"?
------------------------------
YYZ is the airport code for Toronto Canada.  If you ever travel to
Toronto, you'll notice the "YYZ" on your baggage ticket.  The intro
to this song on the crotale is based on the letters Y Y Z in Morse
code.  In Morse code, the letter Y is "-.--" (dash dot dash dash)
and the letter Z is "--.." (dash dash dot dot).  Thus, YYZ becomes:
"-.---.----.." or
"dash dot dash dash dash dot dash dash dash dash dot dot".


  Crotale (5/4)
  q   e q   q   q   e   q   q   q   q   e e
|-x---x-x---x---x---x-|-x---x---x---x---x-x-|

  q   e q   q   q   e   q   q   q   q   e e
|-x---x-x---x---x---x-|-x---x---x---x---x-x-|

  Guitar enters
  Repeat 8 times

  q   e q   q   q   e   q   q   q   q   e e
|---------------------|---------------------|
|---------------------|---------------------|
5o--------------------|--------------------o|
4o--------------------|--------------------o|
|-3-----3---3---3-----|-3---3---3---3-------|
|-----2-------------2-|-----------------2-2-|

  q     q   q   e       q   q   q   e
|---------------------|---------------------|
|---------------------|---------------------|
|---------------------|---------------------|
|---------------------|---------------------|
|-3-----3---3---3-----|-3---3---3---3-------|
|---------------------|---------------------|

                   (note:  tab expanded for clarity)
                    __3__
                    s s s s s s s s s s s s s s E
|-----------------|--------------------------------|
|-----------------|--------------------------------|
4-----------------4-------------------6-8-9-8-6-5--|
4-----------------4-------------6-7-9--------------|
|-----------------|-------6-7-9--------------------|
|-----------------|-8-8-9--------------------------|

 (e)              s s s s s         s s e   s s s s s s e       e
|---------------------------------|---------------------------------|
|------------------h--------------|---------------------------------|
|(5)--------------4-5-4-----------|-7-7-7-----7---------------------|
|-----------------------5-4-------|---------10--109-7---------------|
|---------------------------------|-------------------109-------9\--|
|---------------------------------|---------------------------------|

                                   *** SEE NOTE 1 AT THE END OF ****
                                   *** TAB FOR INFO ABOUT THE  *****
                                   *** 2ND MEASURE OF THIS *********
                                   *** PROGRESSION. ****************
  s s s s s s e   h                 s s s s s s e   E     E     e
|---------------------------------|---------------------------------|
|---------------------------------|---------------------------------|
|o2-2---2-------------------------|-2-2---2-------------------------|
|o----4---4-3-2-------------------|-----4---4-2---------------------|
|-----------------4---------------|-------------4---2-----4---------|
|---------------------------------|-----------------------------2---|

  s s s s s s e   h                 s s s s s s s s E     E     e
|---------------------------------|---------------------------------|
|---------------------------------|---------------------------------|
|-2-2---2-------------------------|-2-2---2-------------------------|
|-----4---4-3-2-------------------|-----4---4-2---------------------|
|-----------------4---------------|-------------4-3-2-----4---------|
|---------------------------------|-----------------------------2---|

  s s s s s s e   h                 s s s s s s s s E     E     e
|---------------------------------|---------------------------------|
|---------------------------------|---------------------------------|
|-5-5---5-------------------------|-5-5---5-------------------------|
|-----7---7-6-5-------------------|-----7---7-5---------------------|
|-----------------7---------------|-------------7-6-5-----7---------|
|---------------------------------|-----------------------------5---|

                                   _________________________________
                                  | 1st ending                      |
  s s s s s s e   h               | s s s s s s e   s s s e   s e   |
|---------------------------------|---------------------------------|
|---------------------------------|---------------------------------|
|-5-5---5-------------------------|-5-5---5------------------------o|
|-----7---7-6-5-------------------|-----7---7-5-----5-5---5---5----o|
|-----------------7---------------|-------------7-------7-------7\--|
|---------------------------------|---------------------------------|

 _________________________________
| 2nd ending                      |
| s s s s s s s s E     E     e   |
|---------------------------------|
|---------------------------------|
|-5-5---5------------------------o|
|-----7---7-5--------------------o|
|-------------7-6-5-----7---------|
|-----------------------------5---|
                                                sustain - - - - - -
  E     E     e   he                    e   e   e   q       q
|---------------------------------|---------------------------------|
|---------------------------------|-----------------2-------r-------|
|o8-----9-----11\-----------------|-----8---9---11--^-------^-------|
|o----------------7~--------------|---------------------------------|
|---------------------------------|---------------------------------|
|---------------------------------|---------------------------------|

                                                sustain - - - - - -
  E     E     e   s s s s s Ee          e   e   e   q       q
|---------------------------------|---------------------------------|
|---------------------------------|-----------------2-------r-------|
|-8-----9-----11-----------h------|-----8---9---11--^-------^~-\----|
|-----------------7-7-7-7-7-9-----|---------------------------------|
|---------------------------------|---------------------------------|
|---------------------------------|---------------------------------|

  E     e   t e   s s s s Q             e   s t e   s s s s s s s s
|------------------h-p-h----------|------------------h-p---h-p-h-p--|
|-1-----3---3/5---3-5-3-5/8-------|-----1---3-3/5---3-5-3/5-8-5-8-5-|
|---------------------------------|---------------------------------|
|---------------------------------|---------------------------------|
|---------------------------------|---------------------------------|
|---------------------------------|---------------------------------|

  E     E   t e   s s s s Q             e   s t e   s s s s s s s s
|------------------h-p-h----------|------------------h-p---h-p-h-p--|
|-1-----3---3/5---3-5-3-5/8-------|-----1---3-3/5---3-5-3/5-8-5-8-5-|
|---------------------------------|--------------------------------o|
|---------------------------------|--------------------------------o|
|---------------------------------|---------------------------------|
|---------------------------------|---------------------------------|

 ** SEE NOTE 2 AT THE END OF TAB **
  B7
  E     s     e       e       e     E     s     e       e       e
|-7-----7-----7-------7-------7---|-7-----7-----7-------7-------7--/|
|-7-----7-----7-------7-------7---|-7-----7-----7-------7-------7--/|
|o8-----8-----8-------8-------8---|-8-----8-----8-------8-------8--/|
|o7-----7-----7-------7-------7---|-7-----7-----7-------7-------7--/|
|-9-----9-----9-------9-------9---|-9-----9-----9-------9-------9--/|
|-7-----7-----7-------7-------7---|-7-----7-----7-------7-------7--/|

                                   _________________________________
  C7                              | 1st - bass fill, 2nd -drum fill |
  E     s     e       e       e   | e                               |
|-8-----8-----8-------8-------8---|{8 }-----------------------------|
|-8-----8-----8-------8-------8---|{8 }-{chord shown in brackets}---|
|-9-----9-----9-------9-------9---|{9 }-{played 2nd time only.  }--o|
|-8-----8-----8-------8-------8---|{8 }----------------------------o|
|-10----10----10------10------10--|{10}-----------------------------|
|-8-----8-----8-------8-------8---|{8 }-----------------------------|

  B7
  e   e           e   e   q         e   e           e   e   q
|-7---7---------------------------|-7---7---------------------------|
|-7---7---------------------------|-7---7---------------------------|
|-8---8---------------------------|-8---8---------------------------|
|-7---7-------------------7-------|-7---7-------------------7-------|
|-9---9---------------9-----------|-9---9---------------9-----------|
|-7---7-----------7---------------|-7---7-----------7---------------|

  C7
  e   e           e   e   q         e   ...bass fill
|-8---8---------------------------|-8-------------------------------|
|-8---8---------------------------|-8-------------------------------|
|-9---9---------------------------|-9-------------------------------|
|-8---8-------------------8-------|-8-------------------------------|
|-10--10--------------10----------|-10------------------------------|
|-8---8-----------8---------------|-8-------------------------------|


Note:  Musical notes indicated by "x" below are executed by muting the
       strings with the fretting hand and strumming as indicated.

  B7
  s s s s e   s s s s s s e   s s   s s s s e   s s s s s s e   s s
|---------7---------------7-------|---------7---------------7-------|
|-x-x-x-x-7---x-x-x-x-x-x-7---x-x-|-x-x-x-x-7---x-x-x-x-x-x-7---x-x-|
|-x-x-x-x-8---x-x-x-x-x-x-8---x-x-|-x-x-x-x-8---x-x-x-x-x-x-8---x-x-|
|-x-x-x-x-7---x-x-x-x-x-x-7---x-x-|-x-x-x-x-7---x-x-x-x-x-x-7---x-x-|
|-x-x-x-x-9---x-x-x-x-x-x-9---x-x-|-x-x-x-x-9---x-x-x-x-x-x-9---x-x-|
|---------7---------------7-------|---------7---------------7-------|

  C7
  s s s s e   s s s s s s e   s s   e   ...drum fill
|---------8---------------8-------|-8-------------------------------|
|-x-x-x-x-8---x-x-x-x-x-x-8---x-x-|-8-------------------------------|
|-x-x-x-x-9---x-x-x-x-x-x-9---x-x-|-9-------------------------------|
|-x-x-x-x-8---x-x-x-x-x-x-8---x-x-|-8-------------------------------|
|-x-x-x-x-10--x-x-x-x-x-x-10--x-x-|-10------------------------------|
|---------8---------------9-------|-8-------------------------------|

  B7
  E     E         E     E           E     E         E     E
|-------7---------------7---------|-------7---------------7---------|
|-------7---------------7---------|-------7---------------7---------|
|-------8---------------8---------|-------8---------------8---------|
|-------7---------------7---------|-------7---------------7---------|
|-9-----9---------9-----9---------|-9-----9---------9-----9---------|
|-7---------------7---------------|-7---------------7---------------|

  C7
  E     E         E     E           E     E         E     E
|-------8---------------8---------|-------8---------------8---------|
|-------8---------------8---------|-------8---------------8---------|
|-------9---------------9---------|-------9---------------9---------|
|-------8---------------8---------|-------8---------------8---------|
|-10----10--------10----10--------|-10----10--------10----10--------|
|-8---------------8---------------|-8---------------8---------------|

  e   ...bass fill
|-8-------------------------------|---------------------------------|
|-8-------------------------------|---------------------------------|
|-9-------------------------------|---------------------------------|
|-8-------------------------------|---------------------------------|
|-10------------------------------|---------------------------------|
|---------------------------------|---------------------------------|

  B
  E     s     Q                     E     s     Q
|-2-----2-----2-------------------|-2-----2-----2-------------------|
|-4-----4-----4-------------------|-4-----4-----4-------------------|
|-4-----4-----4-------------------|-4-----4-----4-------------------|
|-4-----4-----4-------------------|-4-----4-----4-------------------|
|-2-----2-----2-------------------|-2-----2-----2-------------------|
|---------------------------------|---------------------------------|

  C
  E     s     Q                     e   ...drum fill
|-3-----3-----3-------------------|-3-------------------------------|
|-5-----5-----5-------------------|-5-------------------------------|
|-5-----5-----5-------------------|-5-------------------------------|
|-5-----5-----5-------------------|-5-------------------------------|
|-3-----3-----3-------------------|-3-------------------------------|
|---------------------------------|---------------------------------|

  drum fill (continued)
|---------------------------------|
|---------------------------------|
|---------------------------------|
|---------------------------------|
|---------------------------------|
|---------------------------------|


Solo:  Overdriven/chorused guitar sound with slight reverb
       and short slap back delay.  See Scale chart at bottom of
       tab for additional guidance.
                            s s s   e   e   e   q       s s s s s s
|-----------------------------p-p-|p--h---h---h--------p--h-p-p-h-p-|
|---------------------------151312|-0---7---8---10------8-108-7-8-7-|
|---------------------------------|---------------------------------|
|---------------------------------|---------------------------------|
|---------------------------------|---------------------------------|
|---------------------------------|---------------------------------|

  h                 s s s s s s s   s s s s e   s e   e   q     s s
|---------------------------------|------------------------1--------|
|--------------------h--7-8-107/8\|-7---7--p-----h----7---7^-----p--|
|-9~----------------8-9-----------|---9---9-8---8-9-------------9-8-|
|---------------------------------|---------------------------------|
|---------------------------------|---------------------------------|
|---------------------------------|---------------------------------|

  q       q                             t S  s s s s s s s ht
|---------------------------------|------h--h-p-p-h-h-p-p-h---------|
|---------------------------------|-----0-1--4-1-0-4-7-4-0-12-------|
|-9------(9)\---------------------|---------------------------------|
|---------------------------------|---------------------------------|
|---------------------------------|---------------------------------|
|---------------------------------|---------------------------------|

  E     q+s        s  t  s  q       e   e   e   e   e   e   e   e
                  p     h  p                                  1   1
|-------14---------12\11-12-11----|----p---h----11------11--11^-11^-|
|-(12)----------------------------|-13--12--13------13-------w/bar--|
|---------------------------------|---------------------------------|
|---------------------------------|---------------------------------|
|---------------------------------|---------------------------------|
|---------------------------------|---------------------------------|

  h
|-8-------------------------------|
|---------------------------------|
|---------------------------------|
|---------------------------------|
|---------------------------------|
|---------------------------------|

(Note:  Tab Expanded for clarity)

  s   s   s   s   e       t t t t e     e     e   s  e    e
         h   p   h       p  p h p h
|-17--12--14--12--15------1412141112---------p---p-------h--------|
|---------------------------------------16----13--12/13---15------|
|-----------------------------------------------------------------|
|-----------------------------------------------------------------|
|-----------------------------------------------------------------|
|-----------------------------------------------------------------|

  Q                       s   s   s   e       e       e       e
|--(2)-----------------------p-------h-------------------------(2)|
|-15^--------------------(15)-13-\12--13------12------13-----(13^)|
|-----------------------------------------------------------------|
|-----------------------------------------------------------------|
|-----------------------------------------------------------------|
|-----------------------------------------------------------------|

  s   s   s   s       s       s   s   s   s   s   e       e
|---r-p------h-------------------p-------h---p-----------h--------|
|(13^)12-\10--12------13------13--12-\10--12--10-\8-------10------|
|-----------------------------------------------------------------|
|-----------------------------------------------------------------|
|-----------------------------------------------------------------|
|-----------------------------------------------------------------|

  s   Q+e
|p---p------------------------------------------------------------|
|-8---7-----------------------------------------------------------|
|-----------------------------------------------------------------|
|-----------------------------------------------------------------|
|-----------------------------------------------------------------|
|-----------------------------------------------------------------|

  s   e       s   s   s   s   e       s   s   s   s   t e+s
|----h-------h---p---p---h---p-----------h---p---p---h-h----------|
|-0---1-------4---1---0---1---0-------5---7---4---0---4-5---------|
|-----------------------------------------------------------------|
|-----------------------------------------------------------------|
|-----------------------------------------------------------------|
|-----------------------------------------------------------------|

  s   s   s   s   e       s   e+t       s    s    s    e
|--------h---p---p-------h---h---------p----h----p----------------|
|(5)--4---5---4---0-------10--13--------10---12---10--\8----------|
|-----------------------------------------------------------------|
|-----------------------------------------------------------------|
|-----------------------------------------------------------------|
|-----------------------------------------------------------------|

  e       s   s   s   t Q                                     s
|--------p---h---p---h--------------------------------------------|
|-10------7---8---7---8/10------------------------------------0---|
|-----------------------------------------------------------------|
|-----------------------------------------------------------------|
|-----------------------------------------------------------------|
|-----------------------------------------------------------------|

  s   s   s   s   s   s   s   s   s   s   s   s   s   s   s   s
|h---h---p---p---h---h---p---p---h---h---p---p---h---h---p---p----|
|-10--12--10--0---10--12--10--0---8---10--8---0---8---10--8---0---|
|-----------------------------------------------------------------|
|-----------------------------------------------------------------|
|-----------------------------------------------------------------|
|-----------------------------------------------------------------|

  s   s   s   s   s   s   s   s   s   s   s   s   s   s   s   s
|h---h---p---p---h---h---p---p---h---h---p---p---h---h---p---p----|
|-7---8---7---0---5---7---5---0---4---5---4---0---1---4---1---0--/|
|-----------------------------------------------------------------|
|-----------------------------------------------------------------|
|-----------------------------------------------------------------|
|-----------------------------------------------------------------|

(Note:  tab returned to normal width)

  w+
|-----------------|-----------------|-----------------|-----------------|
|-10--------------|(10)----feedback-|(10)-------------|(10)-------------|
|-----------------|-----------------|-----------------|-----------------|
|-----------------|-----------------|-----------------|-----------------|
|-----------------|-----------------|-----------------|-----------------|
|-----------------|-----------------|-----------------|-----------------|

Guitar Rest for 2 measures

  He            ew                    H           e ew
|-----------------|-----------------|-12--------------|-----------------|
|-----------------|-----------------|---------------13|-----------------|
|-----------------|-----------------|-------------14--|-----------------|
|---------------14|-----------------|-----------------|-----------------|
|-12--------------|-----------------|-----------------|-----------------|
|-----------------|-----------------|-----------------|-----------------|

  Q     e Q     ew                    He            ewH
|-------1-r-------|-----------------|-----------------|-----------------|
|-12----^-^-------|-----------------|-----------------|-----------------|
|---------------12|-----------------|---------------5-|-----------------|
|-----------------|-----------------|-7---------------|-----------------|
|-----------------|-----------------|-----------------|-----------------|
|-----------------|-----------------|-----------------|-----------------|

              q
|-----------------|
|-----------------|
|-----------------|
|-------------9\--|
|-----------------|
|-----------------|

                                   *** SEE NOTE 1 AT THE END OF ****
                                   *** TAB FOR INFO ABOUT THE  *****
                                   *** 2ND MEASURE OF THIS *********
                                   *** PROGRESSION. ****************
  s s s s s s e   h                 s s s s s s s s E     E     e
|---------------------------------|---------------------------------|
|---------------------------------|---------------------------------|
|-2-2---2-------------------------|-2-2---2-------------------------|
|-----4---4-3-2-------------------|-----4---4-2---------------------|
|-----------------4---------------|-------------4-3-2-----4---------|
|---------------------------------|-----------------------------2---|

  s s s s s s e   h                 s s s s s s s s E     E     e
|---------------------------------|---------------------------------|
|---------------------------------|---------------------------------|
|-2-2---2-------------------------|-2-2---2-------------------------|
|-----4---4-3-2-------------------|-----4---4-2---------------------|
|-----------------4---------------|-------------4-3-2-----4---------|
|---------------------------------|-----------------------------2---|

  s s s s s s e   h                 s s s s s s s s E     E     e
|---------------------------------|---------------------------------|
|---------------------------------|---------------------------------|
|-5-5---5-------------------------|-5-5---5-------------------------|
|-----7---7-6-5-------------------|-----7---7-5---------------------|
|-----------------7---------------|-------------7-6-5-----7---------|
|---------------------------------|-----------------------------5---|

  s s s s s s e   h                 s s s s s s e   s s s e   E
|---------------------------------|---------------------------------|
|---------------------------------|---------------------------------|
|-5-5---5-------------------------|-5-5---5-------------------------|
|-----7---7-6-5-------------------|-----7---7-5-----5-5---5---------|
|-----------------7---------------|-------------7-------7-----7-----|
|---------------------------------|---------------------------------|

  s s s s s s s h+s                 s s s s s s s s E     E     e
|---------------------------------|---------------------------------|
|---------------------------------|---------------------------------|
|-2-2---2-------------------------|-2-2---2-------------------------|
|-----4---4-3-2-------------------|-----4---4-2---------------------|
|---------------4-----------------|-------------4-3-2-----4---------|
|---------------------------------|-----------------------------2---|

  s s s s s s e   h                 s s s s s s s s E     E     e
|---------------------------------|---------------------------------|
|---------------------------------|---------------------------------|
|-2-2---2-------------------------|-2-2---2-------------------------|
|-----4---4-3-2-------------------|-----4---4-2---------------------|
|-----------------4---------------|-------------4-3-2-----4---------|
|---------------------------------|-----------------------------2---|

  s s s s s s e   h                 s s s s s s s s E     E     e
|---------------------------------|---------------------------------|
|---------------------------------|---------------------------------|
|-5-5---5-------------------------|-5-5---5-------------------------|
|-----7---7-6-5-------------------|-----7---7-5---------------------|
|-----------------7---------------|-------------7-6-5-----7---------|
|---------------------------------|-----------------------------5---|

  s s s s s s e   h                 s s s s s s s s E     E     e
|---------------------------------|---------------------------------|
|---------------------------------|---------------------------------|
|-5-5---5-------------------------|-5-5---5-------------------------|
|-----7---7-6-5-------------------|-----7---7-5---------------------|
|-----------------7---------------|-------------7-6-5-----7---------|
|---------------------------------|-----------------------------5---|

                                                sustain - - - - - -
  E     E     e   h                 e   e   e   e   q       q
|---------------------------------|---------------------------------|
|---------------------------------|-----------------2-------r-------|
|-8-----9-----11\-----------------|-----8---9---11--^-------^~------|
|-----------------7~--------------|(7)------------------------------|
|---------------------------------|---------------------------------|
|---------------------------------|---------------------------------|

                                                sustain - - - - - -
  E     E     e   s s s s s E       e   e   e   e   q       q
|---------------------------------|---------------------------------|
|---------------------------------|-----------------2-------r-------|
|-8-----9-----11-----------h------|-----8---9---11--^-------^~---\--|
|-----------------7-7-7-7-7-9-----|(9)------------------------------|
|---------------------------------|---------------------------------|
|---------------------------------|---------------------------------|

  E     E   t e   s s s s Q             e   e t e   s s s s s s s s
|------------------h-p-h----------|------------------h-p---h-p-h-p--|
|-1-----3---3/5---3-5-3-5/8-------|-----1---3-3/5---3-5-3/5-8-5-8-5-|
|---------------------------------|---------------------------------|
|---------------------------------|---------------------------------|
|---------------------------------|---------------------------------|
|---------------------------------|---------------------------------|

  E     E     e   s s s s Q             e   e t e   s s s s s s s s
|------------------h-p-h----------|------------------h-p---h-p-h-p--|
|-1-----3---/-5---3-5-3-5/8-------|-----1---3-3/5---3-5-3/5-8-5-8-5-|
|---------------------------------|---------------------------------|
|---------------------------------|---------------------------------|
|---------------------------------|---------------------------------|
|---------------------------------|---------------------------------|

  E     E     e   h                 e   e   e   e   q       q
|---------------------------------|---------------------------------|
|---------------------------------|-------------------2-------------|
|-8-----9-----11------------------|----[8]-[9]-[11][11^]---[11]-----|
|-----------------7---------------|(7)------------------------------|
|---------------------------------|---------------------------------|
|---------------------------------|---------------------------------|

  E     E     e   h                 e   e   e   e   q       q
|---------------------------------|---------------------------------|
|---------------------------------|-------------------2-------------|
|[8]---[9]---[11]-----------------|----[8]-[9]-[11][11^]---[11]-----|
|----------------[7]--------------|(7)------------------------------|
|---------------------------------|---------------------------------|
|---------------------------------|---------------------------------|

  E     E   t e   s s s s Q             e   e t e   s s s s s s s s
|------------------h-p-h----------|------------------h-p---h-p-h-p--|
|-1-----3---3/5---3-5-3-5/8-------|-----1---3-3/5---3-5-3/5-8-5-8-5-|
|---------------------------------|---------------------------------|
|---------------------------------|---------------------------------|
|---------------------------------|---------------------------------|
|---------------------------------|---------------------------------|

                          sustain - - - - - - - - - - - - - - - - -
  E     E   t E   s s s s w+
|------------------h-p-h----------|---------------------------------|
|-1-----3---3/5---3-5-3-5/8-------|---------------------------------|
|---------------------------------|---------------------------------|
|---------------------------------|---------------------------------|
|---------------------------------|---------------------------------|
|---------------------------------|---------------------------------|

  - - - - - - - - - - - - - - - -
  w                                 q       q       e
|---------------------------------|---------------------|
|-----slight feedback-------------|---------------------|
|---------------------------------5---------------------|
|---------------------------------8---------------------|
|---------------------------------|-3-------3-----------|
|---------------------------------|-----------------2---|

                            sustain - - - - - - - - - - - -
  q       q       q         wwQ
|-------------------------|---------------------------------|
|-------------------------|---------------------------------|
6-------------------------4---------------------------------|
8-------------------------4---------------------------------|
|-3-------3-------3-------|---------------------------------|
|-------------------------|-2-------------------------------|

  - - - - - - - - - - - - - - - - - - - - - - - e   e   e
|---------------------------------|-------------------------|
|---------------------------------|-------------------------|
|---------------------------------6-------------------------|
|---------------------------------8-------------4---2-------|
|---------------------------------|---------------------5---|
|---------------------------------|-------------------------|

  e
|-------------------------|
|-------------------------|
|-------------------------|
|-------------------------|
|-2-----------------------|
|-------------------------|

NOTES
-----

NOTE 1:
An alternate fingering to these measures is provided below:

  s s s s s s e   E     E     e
|---------------------------------|
|---------------------------------|
|-2-2---2-------------------------|
|-----4---4-2---------------------|
|-------------4---2-----4---------|
|-----------------------------2---|

  s s s s s s e   E     E     e
|---------------------------------|
|---------------------------------|
|-5-5---5-------------------------|
|-----7---7-5---------------------|
|-------------7---5-----7---------|
|-----------------------------5---|


NOTE 2:
I "suspect" Lifeson may be muting the D string in the 7th chord
with his ring finger...

      7     B7                8     C7
  e |(O-|---|---|---|i    e |(O-|---|---|---|i
  B |(O-|---|---|---|i    B |(O-|---|---|---|i
  G |(--|-O-|---|---|m    G |(--|-O-|---|---|m
  D |(--|---|-X-|---|     D |(--|---|-X-|---|
  A |(--|---|-O-|---|r    A |(--|---|-O-|---|r
  E |(O-|---|---|---|i    E |(O-|---|---|---|i


Lyrics:
None


Tablature Contributors:
This transcription was created by C. D. Bruce (charlesdbruce@hotmail.com)
in the format (described below).  It was based primarily on Peter
Seckel's tab (Guitar for the Practicing Musician, April 1986) and Jimmy
Pena's (jimmy_pena@juno.com) tab with a number of changes.  Other
contributions were made by Sean Carroll (xamolleh@ix.netcom.com), Jim
Cirronella (twozbar@verizon.net), Tony Fabris (tfabris@oro.net), Sean
Jones (seanj2112@earthlink.net) and Rich Soto (hrhkinglerxst@home.com).
Special thanks goes to Tony Kennedy (tonykennedy@entermail.net) for the
half speed wav files and Rich Soto (hrhkinglerxst@home.com) for various
video footage.


Disclaimer:
This tablature represents how the song is played as closely as reasonably
achievable to the *studio* recording.  Alex Lifeson may have played it
slightly differently.


Tablature Explanation:
NT= Nashville Tuning is when the low E, A, D and G strings are replaced
    with lighter gauge strings and tuned one octave higher than normal.
| = bar separating measures
~ = vibrato
x = percussive note with no pitch; muted note
. = staccato; mute the note immediately after striking it
h = hammer
p = pull
s = slide (used when \ or / don't fit)
^ = bend string up to indicated pitch/fret shown in parenthesis ()
r = release bend (string/fret may be indicated)
t = fret board tap (not many of these with Rush)
/ = slide up
\ = slide down
x/= pick slide up
x\= pick slide down
<5 = natural harmonic (lightly touch the string at fret indicated)
[5] = artificial harmonic (use thumb to follow through the pick attack)
(5) = note sustained from previous measure
o =\ repeat sign
o =/
D.C. = "Da capo" - means "from the head", when you see these initials
       you go back to the beginning of the piece of music.
D.S. = "Dal segno" - means "from the sign", go back in the tabulature
       only as far as the (%) sign.
Coda = A passage at the end of a movement or composition that brings
       it to a formal close.
Al Coda = means "to the tail", tells you that you must go to the end
          section which starts with the Coda sign (+).
R.F. = repeat and fade
rit. = "ritardando" - Gradually slowing in tempo; retarding.

Other pertinent information:
  Tempo:  1/4 note = varies
  Tuning:  Standard [EADGBe].
  Key signature:
  Effects:  Overdrive, Chorus, Ambient delay and reverb
  Chord & Scale Chart Below:

      7     B7                8     C7
  e |(O-|---|---|---|     e |(O-|---|---|---|
  B |(O-|---|---|---|     B |(O-|---|---|---|
  G |(--|-O-|---|---|     G |(--|-O-|---|---|
  D |(O-|---|---|---|     D |(O-|---|---|---|
  A |(--|---|-O-|---|     A |(--|---|-O-|---|
  E |(O-|---|---|---|     E |(O-|---|---|---|

Scale Chart for solo (B Spanish Phygrian):
0  1   2   3   4   5   6   7   8   9   0   1   2   3   4   5   6   7   8   9
O|---|-O-|-O-|---|-O-|---|-O-|-O-|---|---|-O-|-O-|---|-O-|-O-|---|-O-|---|-O-|
O|-O-|---|---|-O-|-O-|---|-O-|-O-|---|-O-|---|-O-|-O-|---|---|-O-|-O-|---|---|
O|---|-O-|---|-O-|-O-|---|---|-O-|-O-|---|-O-|-O-|---|-O-|---|-O-|-O-|---|---|
||-O-|-O-|---|-O-|-O-|---|-O-|---|-O-|-O-|---|---|-O-|-O-|---|-O-|-O-|---|---|
O|---|-O-|-O-|---|---|-O-|-O-|---|-O-|-O-|---|-O-|---|-O-|-O-|---|---|-O-|---|
O|---|-O-|-O-|---|-O-|---|-O-|-O-|---|---|-O-|-O-|---|-O-|-O-|---|-O-|---|-O-|

0  1   2   3   4   5   6   7   8   9   0   1   2   3   4   5   6   7   8   9
E|---|-F#|-G-|---|-A-|---|-B-|-C-|---|---|-D#|-E-|---|-F#|-G-|---|-A-|---|-B-|
B|-C-|---|---|-D#|-E-|---|-F#|-G-|---|-A-|---|-B-|-C-|---|---|-D#|-E-|---|-F#|
G|---|-A-|---|-B-|-C-|---|---|-D#|-E-|---|-F#|-G-|---|-A-|---|-B-|-C-|---|---|
||-D#|-E-|---|-F#|-G-|---|-A-|---|-B-|-C-|---|---|-D#|-E-|---|-F#|-G-|---|-A-|
A|---|-B-|-C-|---|---|-D#|-E-|---|-F#|-G-|---|-A-|---|-B-|-C-|---|---|-D#|-E-|
E|---|-F#|-G-|---|-A-|---|-B-|-C-|---|---|-D#|-E-|---|-F#|-G-|---|-A-|---|-B-|

Other Pertinent information per Jim Cironella:
1. Phrygian is a Minor scale with a lowered second degree.  (In the case of
   B Phrygian, a C natural.)

2. Spanish Phrygian is a Phrygian scale with a raised third degree.  (In the
   case of B Spanish Phrygian, a D#.)

3. The YYZ solo gets it's signature sound from Lifeson's emphasis on the C natural to D# interval.

4. Limelight

Alex Lifeson

E||-----------------------|----------------------|-----------------------|
B||-----------------------|----------------------|-----------------------|
G||-----------------------|--4--------4-------2--|-----------------------|
D||--------------------2--|--4--------4-------2--|--------------------2--|
A||--------------0--4-----|--2--------2-------0--|--------------0--4-----|
E||--------0--4-----------|----------------4-----|--------0--4-----------|

----------------------|-----------------------|----------------------|
----------------------|-----------------------|----------------------|
--4--------4-------2--|-----------------------|--4--------4-------2--|
--4--------4-------2--|--------------------2--|--4--------4-------2--|
--2--------2-------0--|--------------0--4-----|--2--------2-------0--|
----------------4-----|--------0--4-----------|----------------4-----|

-----------------------|----------------------|-------------------|
-----------------------|----------------------|-------------------|
-----------------------|--4------2----2-------|-------------------|
--------------------2--|--4------2----2----2--|-------------------|
--------------0--4-----|--2------0----0----2--|----------0--4--0--|
--------0--4-----------|-------------------0--|----2--4-----------|

----------------------|-------------------|----------------------|
----------------------|-------------------|----------------------|
--4------2----2-------|-------------------|--4------2----2-------|
--4------2----2----2--|-------------------|--4------2----2----2--|
--2------0----0----2--|----------0--4--0--|--2------0----0----2--|
-------------------0--|----2--4-----------|-------------------0--|

-------------------|----------------------|-------------------|
-------------------|----------------------|-------------------|
-------------------|--4------2----2-------|-------------------|
-------------------|--4------2----2----2--|-------------------|
----------0--4--0--|--2------0----0----2--|----------0--4--0--|
----2--4-----------|-------------------0--|----2--4-----------|

-----------0--------------------------|------------------------0----0--|
--------------0-----------------------|------------------------0----0--|
--------4--------4-----------6--------|--------------------------------|
-----4--------------------4-----4-----|--4----4------4-----------------|
--2--------------------6-----------6--|--4----4------4-----------------|
--------------------4-----------------|--2----2------2----0------------|

--------------------------0------|-----------0--------------------------|
--------------------------0------|--------------0-----------------------|
---------------------------------|--------4--------4-----------6--------|
--4----4-------------------------|-----4--------------------4-----4-----|
--4----4-------------------------|--2--------------------6-----------6--|
--2----2----2h4-2----0-----------|--------------------4-----------------|

---------------------|------------------------|----------------------|
---------------------|------------------------|----------------------|
---------------------|-------4----------4-----|----------------------|
--4----4-------------|----4----------2--------|----------------------|
--4----4----------2--|----------0-------------|----------0--4--0--2--|
--2----2-------------|---------------------0--|----2--4--------------|

-------------------------|-------------------|
-------------------------|-------------------|
--------4----------4-----|-------------------|
-----4----------2--------|-------------------|
--2--------0-------------|----------0--4--0--|
----------------------0--|----2--4-----------|

-----------0--------------------------|------------------------0----0--|
--------------0-----------------------|------------------------0----0--|
--------4--------4-----------6--------|--------------------------------|
-----4--------------------4-----4-----|--4----4------4-----------------|
--2--------------------6-----------6--|--4----4------4-----------------|
--------------------4-----------------|--2----2------2----0------------|

--------------------------0------|-----------0--------------------------|
--------------------------0------|--------------0-----------------------|
---------------------------------|--------4--------4-----------6--------|
--4----4-------------------------|-----4--------------------4-----4-----|
--4----4-------------------------|--2--------------------6-----------6--|
--2----2----2h4-2----0-----------|--------------------4-----------------|

---------------------|------------------------|-------------------|
---------------------|------------------------|-------------------|
---------------------|-------4----------4-----|-------------------|
--4----4-------------|----4----------2--------|-------------------|
--4----4----------2--|----------0-------------|----------0--4--0--|
--2----2-------------|---------------------0--|----2--4-----------|

-------------------|-------------------|-------------------|------------------|
-------------------|-----------0-------|-----------0-------|------------------|
-----------4----6--|----------------3--|----------------4--|-----------4----6-|
--------4----------|--------2----------|--------4----------|--------4---------|
-----6-------------|-----2-------------|-----4-------------|-----6------------|
--4----------------|--0----------------|--2----------------|--4---------------|

-------------------|-------------------|-------------------|
-----------0-------|-----------0-------|-------------------|
----------------3--|----------------4--|-----------4----6--|
--------2----------|--------4----------|--------4----------|
-----2-------------|-----4-------------|-----6-------------|
--0----------------|--2----------------|--4----------------|

--------------------------|--------------------------|
--------------------------|--------------------------|
--------------------------|--------------------------|
--2--2--2--2--2--2--2--2--|--4--4--4--4--4--4--4--4--|
--2--2--2--2--2--2--2--2--|--4--4--4--4--4--4--4--4--|
--0--0--0--0--0--0--0--0--|--2--2--2--2--2--2--2--2--|

--------------------4-----|--------0-----------0-----|
--------4-----------4-----|--------0-----------0-----|
--------6-----------6-----|--------1-----------1-----|
--4--4--4--4--4--4--4--4--|--2--2--2--2--2--2--2--2--|
--6--6--6--6--6--6--6--6--|--2--2--2--2--2--2--2--2--|
--4--4--4--4--4--4--4--4--|--0--0--0--0--0--0--0--0--|

--------0-----------0-----|--------4-----------4-----|
--------0-----------0-----|--------4-----------4-----|
--------3-----------3-----|--------6-----------6-----|
--4--4--4--4--4--4--4--4--|--4--4--4--4--4--4--4--4--|
--4--4--4--4--4--4--4--4--|--6--6--6--6--6--6--6--6--|
--2--2--2--2--2--2--2--2--|--4--4--4--4--4--4--4--4--|

--------0-----------0-----|--------0-----------0-----|-------------------|
--------0-----------0-----|--------0-----------0-----|-------------------|
--------1-----------1-----|--------3-----------3-----|-----------4----6--|
--2--2--2--2--2--2--2--2--|--4--4--4--4--4--4--4--4--|--------4----------|
--2--2--2--2--2--2--2--2--|--4--4--4--4--4--4--4--4--|-----6-------------|
--0--0--0--0--0--0--0--0--|--2--2--2--2--2--2--2--2--|--4----------------|

-------------------|-------------------|----------------------|
-----------0-------|-----------0-------|----------------------|
----------------3--|----------------3--|--4------2----2-------|
--------2----------|--------4----------|--4------2----2----2--|
-----2-------------|-----4-------------|--2------0----0----2--|
--0----------------|--2----------------|-------------------0--|

-------------------|----------------------|-------------------|
-------------------|----------------------|-------------------|
-------------------|--4------2----2-------|-------------------|
-------------------|--4------2----2----2--|-------------------|
----------0--4--0--|--2------0----0----2--|----------0--4--0--|
----2--4-----------|-------------------0--|----2--4-----------|

-----------0--------------------------|------------------------0----0--|
--------------0-----------------------|------------------------0----0--|
--------4--------4-----------6--------|--------------------------------|
-----4--------------------4-----4-----|--4----4------4-----------------|
--2--------------------6-----------6--|--4----4------4-----------------|
--------------------4-----------------|--2----2------2----0------------|

--------------------------0------|-----------0--------------------------|
--------------------------0------|--------------0-----------------------|
---------------------------------|--------4--------4-----------6--------|
--4----4-------------------------|-----4--------------------4-----4-----|
--4----4-------------------------|--2--------------------6-----------6--|
--2----2----2h4-2----0-----------|--------------------4-----------------|

---------------------|------------------------|----------------------|
---------------------|------------------------|----------------------|
---------------------|-------4----------4-----|----------------------|
--4----4-------------|----4----------2--------|----------------------|
--4----4----------2--|----------0-------------|----------0--4--0--2--|
--2----2-------------|---------------------0--|----2--4--------------|

-------------------------|-------------------|
-------------------------|-------------------|
--------4----------4-----|-------------------|
-----4----------2--------|-------------------|
--2--------0-------------|----------0--4--0--|
----------------------0--|----2--4-----------|

-----------0--------------------------|------------------------0----0--|
--------------0-----------------------|------------------------0----0--|
--------4--------4-----------6--------|--------------------------------|
-----4--------------------4-----4-----|--4----4------4-----------------|
--2--------------------6-----------6--|--4----4------4-----------------|
--------------------4-----------------|--2----2------2----0------------|

--------------------------0------|-----------0--------------------------|
--------------------------0------|--------------0-----------------------|
---------------------------------|--------4--------4-----------6--------|
--4----4-------------------------|-----4--------------------4-----4-----|
--4----4-------------------------|--2--------------------6-----------6--|
--2----2----2h4-2----0-----------|--------------------4-----------------|

---------------------|------------------------|-------------------|
---------------------|------------------------|-------------------|
---------------------|-------4----------4-----|-------------------|
--4----4-------------|----4----------2--------|-------------------|
--4----4----------2--|----------0-------------|----------0--4--0--|
--2----2-------------|---------------------0--|----2--4-----------|

-------------------|-------------------|-------------------|------------------|
-------------------|-----------0-------|-----------0-------|------------------|
-----------4----6--|----------------3--|----------------4--|-----------4----6-|
--------4----------|--------2----------|--------4----------|--------4---------|
-----6-------------|-----2-------------|-----4-------------|-----6------------|
--4----------------|--0----------------|--2----------------|--4---------------|

-------------------|-------------------|-------------------|
-----------0-------|-----------0-------|-------------------|
----------------3--|----------------4--|-----------4----6--|
--------2----------|--------4----------|--------4----------|
-----2-------------|-----4-------------|-----6-------------|
--0----------------|--2----------------|--4----------------|

--------------------------|--------------------------|
--------------------------|--------------------------|
--------------------------|--------------------------|
--2--2--2--2--2--2--2--2--|--4--4--4--4--4--4--4--4--|
--2--2--2--2--2--2--2--2--|--4--4--4--4--4--4--4--4--|
--0--0--0--0--0--0--0--0--|--2--2--2--2--2--2--2--2--|

--------------------4-----|--------0-----------0-----|
--------4-----------4-----|--------0-----------0-----|
--------6-----------6-----|--------1-----------1-----|
--4--4--4--4--4--4--4--4--|--2--2--2--2--2--2--2--2--|
--6--6--6--6--6--6--6--6--|--2--2--2--2--2--2--2--2--|
--4--4--4--4--4--4--4--4--|--0--0--0--0--0--0--0--0--|

--------0-----------0-----|--------4-----------4-----|
--------0-----------0-----|--------4-----------4-----|
--------3-----------3-----|--------6-----------6-----|
--4--4--4--4--4--4--4--4--|--4--4--4--4--4--4--4--4--|
--4--4--4--4--4--4--4--4--|--6--6--6--6--6--6--6--6--|
--2--2--2--2--2--2--2--2--|--4--4--4--4--4--4--4--4--|

--------0-----------0-----|--------0-----------0-----|
--------0-----------0-----|--------0-----------0-----|
--------1-----------1-----|--------3-----------3-----|
--2--2--2--2--2--2--2--2--|--4--4--4--4--4--4--4--4--|
--2--2--2--2--2--2--2--2--|--4--4--4--4--4--4--4--4--|
--0--0--0--0--0--0--0--0--|--2--2--2--2--2--2--2--2--|


--4--
--4--
--4--
--4-- x 6
--6--
--4--

solo

------|------|------|------|------|------|------|------|-------------------|
------|------|------|------|------|------|------|------|-------------------|
------|------|------|------|------|------|------|------|---4~--------------|
------|------|------|------|------|------|------|------|-------------------|
------|------|------|------|------|------|------|------|-------------------|
------|------|------|------|------|------|------|------|-------------------|

--------------|--------------|---------------|---------------|-----------------|
--------------|--------------|---------------|---------------|-----------------|
--------------|--------------|---------------|---------------|-----------------|
--------------|--------------|--1b-----------|------------6/-|-----------------|
--------------|--------------|---------------|---------------|--------4/-------|
--------------|--------------|---------------|---------------|-----------------|

---------------|----------------|--------------|------------------|
---------------|----------------|--------------|------------12----|
---------------|----------11~---|--------------|--11--------------|
---------------|----------------|--------------|------------------|
------0--------|----------------|--------------|------------------|
------4--------|----------------|--------------|------------------|

--14--------------|--------14----------|----------------11--|
------------------|--12----------11----|--14----------------|
------------11----|--------------------|------13~-----------|
------------------|--------------------|--------------------|
------------------|--------------------|--------------------|
------------------|--------------------|--------------------|

----------14----------11----------14--|----------11----------------|
--12--11------12--11------12--11------|--12--11------14~-------11--|
--------------------------------------|--------------------13------|
--------------------------------------|----------------------------|
--------------------------------------|----------------------------|
--------------------------------------|----------------------------|

--------------------|----------------|----------------|--------------------|
--------------------|----------------|--21b-----------|--24~-------19-21---|
--11~--------13-11--|--13------------|--0-------------|--------------------|
--------------------|----------------|----------------|--------------------|
--------------------|----------------|----------------|--------------------|
--------------------|----------------|----------------|--------------------|

----------------|--------------------18--|
--21b-----------|--23~-------19--21------|
----------------|------------------------|
----------------|------------------------|
----------------|------------------------|
----------------|------------------------|

----------18-----18-19----18--19--18--|--19--21--21b-------|
--19--21------21-------21-------------|--------------------|
--------------------------------------|--------------------|
--------------------------------------|--------------------|
--------------------------------------|--------------------|
--------------------------------------|--------------------|

--23~---23~---23~---23-23-23-23-23-23-|--23~-----------|--------23------|
--------------------------------------|----------------|----------------|
--------------------------------------|----------------|----------------|
--------------------------------------|----------------|----------------|
--------------------------------------|----------------|----------------|
--------------------------------------|----------------|----------------|

--21b---21b---21b---21b-21b-21b-|--21b-21b-21b-21b-21b-21b-21b-21b-21b-|
--------------------------------|--------------------------------------|
--------------------------------|--------------------------------------|
--------------------------------|--------------------------------------|
--------------------------------|--------------------------------------|
--------------------------------|--------------------------------------|

--21b-21b-21b-21b-21b-21b-21b-21b-21b-|----|
--------------------------------------|----|
--------------------------------------|----|
--------------------------------------|----|
--------------------------------------|----|
--------------------------------------|----|

the bends at the 21 fret is in the back ground while the rythem starts again

-------------------|-------------------|-------------------|------------------|
-------------------|-----------0-------|-----------0-------|------------------|
-----------4----6--|----------------3--|----------------4--|-----------4----6-|
--------4----------|--------2----------|--------4----------|--------4---------|
-----6-------------|-----2-------------|-----4-------------|-----6------------|
--4----------------|--0----------------|--2----------------|--4---------------|

-------------------|-------------------|-------------------|------------------|
-----------0-------|-----------0-------|-------------------|-----------0------|
----------------3--|----------------4--|-----------4----6--|----------------3-|
--------2----------|--------4----------|--------4----------|--------2---------|
-----2-------------|-----4-------------|-----6-------------|-----2------------|
--0----------------|--2----------------|--4----------------|--0---------------|

-------------------|-------------------|-------------------|------------------|
-----------0-------|-------------------|-----------0-------|-----------0------|
----------------4--|-----------4----6--|----------------3--|----------------4-|
--------4----------|--------4----------|--------2----------|--------4---------|
----4-------------|-----6-------------|-----2-------------|-----4-------------|
--2----------------|--4----------------|--0----------------|--2---------------|

-------------------|--------------------------|--------------------------|
-------------------|--------------------------|--------------------------|
-----------4----6--|--------------------------|--------------------------|
--------4----------|--2--2--2--2--2--2--2--2--|--4--4--4--4--4--4--4--4--|
-----6-------------|--2--2--2--2--2--2--2--2--|--4--4--4--4--4--4--4--4--|
--4----------------|--0--0--0--0--0--0--0--0--|--2--2--2--2--2--2--2--2--|

--------------------4-----|--------0-----------0-----|
--------4-----------4-----|--------0-----------0-----|
--------6-----------6-----|--------1-----------1-----|
--4--4--4--4--4--4--4--4--|--2--2--2--2--2--2--2--2--|
--6--6--6--6--6--6--6--6--|--2--2--2--2--2--2--2--2--|
--4--4--4--4--4--4--4--4--|--0--0--0--0--0--0--0--0--|

--------0-----------0-----|--------4-----------4-----|
--------0-----------0-----|--------4-----------4-----|
--------3-----------3-----|--------6-----------6-----|
--4--4--4--4--4--4--4--4--|--4--4--4--4--4--4--4--4--|
--4--4--4--4--4--4--4--4--|--6--6--6--6--6--6--6--6--|
--2--2--2--2--2--2--2--2--|--4--4--4--4--4--4--4--4--|

--------0-----------0-----|--------0-----------0-----|
--------0-----------0-----|--------0-----------0-----|
--------1-----------1-----|--------3-----------3-----|
--2--2--2--2--2--2--2--2--|--4--4--4--4--4--4--4--4--|
--2--2--2--2--2--2--2--2--|--4--4--4--4--4--4--4--4--|
--0--0--0--0--0--0--0--0--|--2--2--2--2--2--2--2--2--|

--------4-----------4-----|--------0-----------0-----|
--------4-----------4-----|--------0-----------0-----|
--------6-----------6-----|--------1-----------1-----|
--4--4--4--4--4--4--4--4--|--2--2--2--2--2--2--2--2--|
--6--6--6--6--6--6--6--6--|--2--2--2--2--2--2--2--2--|
--4--4--4--4--4--4--4--4--|--0--0--0--0--0--0--0--0--|

--------0-----------0-----|--------4-----------4-----|
--------0-----------0-----|--------4-----------4-----|
--------3-----------3-----|--------6-----------6-----|
--4--4--4--4--4--4--4--4--|--4--4--4--4--4--4--4--4--|
--4--4--4--4--4--4--4--4--|--6--6--6--6--6--6--6--6--|
--2--2--2--2--2--2--2--2--|--4--4--4--4--4--4--4--4--|

--------0-----------0-----|--------0-----------0-----|
--------0-----------0-----|--------0-----------0-----|
--------1-----------1-----|--------3-----------3-----|
--2--2--2--2--2--2--2--2--|--4--4--4--4--4--4--4--4--|
--2--2--2--2--2--2--2--2--|--4--4--4--4--4--4--4--4--|
--0--0--0--0--0--0--0--0--|--2--2--2--2--2--2--2--2--|

--------4-----------4-----|--------0-----------0-----|
--------4-----------4-----|--------0-----------0-----|
--------6-----------6-----|--------1-----------1-----|
--4--4--4--4--4--4--4--4--|--2--2--2--2--2--2--2--2--|
--6--6--6--6--6--6--6--6--|--2--2--2--2--2--2--2--2--|
--4--4--4--4--4--4--4--4--|--0--0--0--0--0--0--0--0--|

--------0-----------0-----|--4--4--4--4--4--4--4--4--|--0--0--------------|
--------0-----------0-----|--4--4--4--4--4--4--4--4--|--0--0--------------|
--------3-----------3-----|--6--6--6--6--6--6--6--6--|--1--1--------------|
--4--4--4--4--4--4--4--4--|--4--4--4--4--4--4--4--4--|--2--2--------------|
--4--4--4--4--4--4--4--4--|--6--6--6--6--6--6--6--6--|--2--2--------------|
--2--2--2--2--2--2--2--2--|--4--4--4--4--4--4--4--4--|--0--0--------------|

--0--0--------------|--4--4--4--4--4--4--|--4------------|--------------|
--0--0--------------|--4--4--4--4--4--4--|--4------------|--------------|
--3--3--------------|--6--6--6--6--6--6--|--6------------|--------------|
--4--4--------------|--4--4--4--4--4--4--|--4------------|--------------|
--4--4--------------|--6--6--6--6--6--6--|--6------------|--------------|
--2--2--------------|--4--4--4--4--4--4--|--4------------|--------------|

--------------|--------------|----4/---------||
--------------|--------------|----4/---------||
--------------|--------------|----6/---------||
--------------|--------------|----4/---------||
--------------|--------------|----6/---------||
--------------|--------------|----4/---------||


there it is the hole song this is one of rush best songs

5. The Camera Eye

 Mildly overdriven guitar tone w/chorus
    e Hw+
|-----------------|-----------------|-----------------|-----------------|
|-----------------|-----------------|-----------------|-----------------|
4-----------------|-----------------|-----------------|-----------------|
4-----------------|-----------------|-----------------|-----------------|
|-----------------|-----------------|-----------------|-----------------|
|---7/8-----------|-----------------|-----------------|-----------------|

  Q     e
|<12-------------|-----------------|-----------------|--------------------|
|-----------------|-----------------|-----------------|-------------------|
|------<5.-------|-----------------|-----------------|--------Probably----|
|-----------------|-----------------|-----------------|-----x\-a "mild"---|
|-----------------|-----------------|-----------------|-----x\-pick-------|
|-----------------|-----------------|-----------------|--------slide------|

  Note:  Bracketed "{}" notes below are "harp" harmonics which are
  executed by fretting a C chord (see below) in the first position
  and plucking the string with the thumb or pick while touching 12 frets
  above the fretted note with the tip of the picking hand index finger.

            C
  e |---|---|-O-|---|
  B |-O-|---|---|---|
  G 0---|---|---|---|
  D |---|-O-|---|---|
  A |---|---|-O-|---|
  E |---|---|---|---|

  Q     q   Q       Q     he
|{13}-------------|------{15}-------|-----------------|-----------------|
|-----------------|{13}-------------|-----------------|-----------------|
|----------{12}---|-----------------|-----------------|-----------------|
|------{14}-------|-----------------|-----------------|-----------------|
|-----------------|-----------------|-----------------|-----------------|
|-----------------|-----------------|-----------------|-----------------|

  h             e   w
|---2-------------|<5--------------|-----------------|--------------------|
|-15^-------------|-----------------|-----------------|-------------------|
|--------------<5|-----------------|-----------------|--------------------|
|-----------------|-----------------|-----------------|-------------------|
|-----------------|-----------------|-----------------|-------------------|
|-----------------|-----------------|-----------------|-------------------|

                                      C
  Q     q   q   e   Q     q   e e     Q     Q     ss    Q     e e e ss
|-----------------|-----------------|-8-----8-----88--|-8-----8-8-8-88-\|
|-x-----x---x---x-|-x-----x---x-x---|-8-----8-----88--|-8-----8-8-8-88-\|
|-x-----x---x---x-|-x-----x---x-x---|-9-----9-----99--|-9-----9-8-9-99-\|
|-x-----x---x---x-|-x-----x---x-x---|-10----10----110-|-10----101010110\|
|-x-----x---x---x-|-x-----x---x-x---|-----------------|-----------------|
|-----------------|-----------------|-----------------|-----------------|

  Heavily overdriven tone w/chorus, it is likely that the guitar was
  double, triple or even quadruple tracked to thicken the sound.  To
  attempt to duplicate this, use a digital or analog delay unit set at
  0 ms with the level at 100%.

  Bbs2                                C/G   G           F
  ww                                  Q     he          w
|-----------------|-----------------|-----------------|-1---------------|
|-1---------------|-----------------|-5-----3---------|-1---------------|
|-3---------------|-----------------|-5-----4---------|-2---------------|
|-3---------------|-----------------|-5-----5---------|-3---------------|
|-3---------------|-----------------|-3-----5---------|-3---------------|
|-----------------|-----------------|-3-----3---------|-1---------------|

  Bbs2                                C/G   G           F
  ww                                  Q     he          w
|-----------------|-----------------|-----------------|-1---------------|
|-1---------------|-----------------|-5-----3---------|-1---------------|
|-3---------------|-----------------|-5-----4---------|-2---------------|
|-3---------------|-----------------|-5-----5---------|-3---------------|
|-3---------------|-----------------|-3-----5---------|-3---------------|
|-----------------|-----------------|-3-----3---------|-1---------------|

  Bbs2                                C/G   G     F     Bbs2
  He            e   q   e q   e e     Q     Q     q     H         q   q
|-----------------|-----------------|-------------1---|-----------0-----|
|-1---------------|-1-----1-----1---|-5-----3-----1---|-1-------------1-|
|-3-------------3-|-----0-----3-----|-5-----4-----2---|-3---------------|
|-3---------------|-----------------|-5-----5-----3---|-3---------------|
|-3---------------|-----------------|-3-----5-----3---|-3---------------|
|-----------------|-----------------|-3-----3-----1---|-----------------|

                    C/G   G           F             Bbs2
    q   q   e q     Q     he          He            ss  h         q   q
|-----------------|-----------------|-1---------------|-----------------|
|-----------------|-3-----3---------|-1-------------11|-1-------------1-|
|---3---0---------|-3-----4---------|-2-------------33|-3---------3-----|
|-----------3-----|-3-----5---------|-3-------------33|-3---------------|
|-------------3---|-5-----5---------|-3-------------33|-3---------------|
|-----------------|-5-----3---------|-1---------------|-----------------|

            C       C/G   G     F     Bbs2
    q   e e sss     Q     Q     q     w+
|---0---1-0-888---|-------------1---|-----------------|-----------------|
|---------1/888---|-3-----3-----1---|-1---------------|-----------------|
|---------3/999---|-3-----4-----2---|-3---------------|-----------------|
|-----------1110--|-3-----5-----3---|-3---------------|-----------------|
|-----------------|-5-----5-----3---|-3---------------|-----------------|
|-----------------|-5-----3-----1---|-----------------|-----------------|

|-----------------|-----------------|
|-----------------|-----------------|
|-----------------|-----------------|
|-----------------|-----------------|
|-----------------|-----------------|
|-----------------|-----------------|

Note:  tablature compressed below
                                              Heavily
                                              overdriven w/chorus
  -- guitar rests during synth bridge --      h+
|---------|---------|---------|---------|---------|---------|
|---------|---------|---------|---------|---------|---------|
|---------|---------|---------|---------|---------|---------|
|---------|---------|---------|---------|---------|---------|
|---------|---------|---------|---------|-----3---|---------|
|---------|---------|---------|---------|---------|---------|

                   e  h   h+
|---------|---------|---------|---------|---------|---------|
|---------|---------|---------|---------|---------|---------|
|---------|---------|---------|---------|---------|---------|
|---------|---------|---------|---------|---------|---------|
|---------|--------3|-4---4---|---------|---------|---------|
|---------|---------|---------|---------|---------|---------|

                                         Repeat 3 times
  h   h+                                  Q  Q  q   Q  Q  q
|---------|---------|---------|---------|---------|---------|
|---------|---------|---------|---------|---------|---------|
|---------|---------|---------|---------|o--------|---------|
|---------|---------|---------|---------|o--------|---------|
|-3---3---|---------|---------|---------|-4-----4-|-6--4--3-|
|---------|---------|---------|---------|----4----|---------|

  Q  Q  q   Q  Q  q   Q  Q  q   Q  Q  q   Q  Q  q   Q  Q  q
|---------|---------|---------|---------|---------|---------|
|---------|---------|---------|---------|---------|---------|
|---------|---------|---------|---------|---------|--------o|
|---------|---------|---------|---------|---------|--------o|
|-4-----4-|-6--4--3\|-3-------|-3-------|-3-------|-3-------|
|----4----|---------|----1--3-|----1--3-|----1--3-|----1--3-|

  Two guitars, flanger on the higher octave (flanger is an
  Electro-Harmonix Electric Mistress).  Lower guitar is on
  the left channel, higher guitar is on the right channel.

  Q  Q  q   Q  Q  q   Q  Q  q   Q  Q  q   Q  Q  q   Q  Q  q
|---------|---------|---------|---------|---------|-----------|F
|---------|---------|---------|---------|---------|-----------|L
|---------|-13-11-10|---------|-13-11-10|o--------|-----------|o|A
|-11----11|---------|-11----11|---------|o10------|-10--------|o|N
|----11---|---------|----11---|---------|----8--10|----8--10--|G
|---------|---------|---------|---------|---------|-----------|E
                                                            |
|---------|---------|---------|---------|---------|---------|
|---------|---------|---------|---------|---------|---------|
|---------|---------|---------|---------|o--------|--------o|
|---------|---------|---------|---------|o--------|--------o|
|-4-----4-|-6--4--3-|-4-----4-|-6--4--3-|-3-------|-3-------|
|----4----|---------|----4----|---------|----1--3-|----1--3-|

Note:  tablature expanded to normal width

  Flanger off, overdriven w/chorus
  e     q   e       q   e       e q   q   q     e     q     e     q   e
|-----------------|---------|-----------------|---------|-----------------|
|-----------------|---------|-----------------|---------|-----------------|
|-----------------2---------4-----------------2---------4-----------------|
|-5-----5---5-----4-5---5---4---5-5---5---5---4-5-----5-4---5-----5---5---|
|-7-----5---8-----|-5---7---|---5-7---8---5---|-7-----5-|---8-----5---7---|
|-----------------|---------|-----------------|---------|-----------------|

    e q   q   q
|-----------------|
|-----------------|
|-----------------|
|---5-5---5---5---|
|---5-7---8---5---|
|-----------------|

Note:  In the section below, I believe Lifeson played it differently
       live compared to the studio.  I believe he played everything
       in the first position as indicated.  The higher notes that
       are heard can be attributed to to the Nashville tuned
       acoustic guitar.

  Grim faced and forbidding...
  Repeat 3 times, electric w/clean tone & chorus, Acoustic (Nashville
  tuned).
  C                                                   F     C   F
  q   e e e e   q   e e e e   q   e e e e   q   q     q   e q   e
|-0---0-0-0-0-|-0---0-0-0-0-|-0---0-0-0-0-|-0---0---|-1---1-----1-|B
|-1---1-1-1-1-|-1---1-1-1-1-|-1---1-1-1-1-|-1---1---|-1---1-1---1-|O
3o0---0-0-0-0-|-0---0-0-0-0-|-0---0-0-0-0-2-0---0---3-2---2-0---2-|T
4o2---2-2-2-2-|-2---2-2-2-2-|-2---2-2-2-2-4-2---2---4-3---3-2---3-|H
|-3---3-3-3-3-|-3---3-3-3-3-|-3---3-3-3-3-|-3---3---|-3---3-3---3-|
|-------------|-------------|-------------|---------|-------------|

  Bb      F           C   F   Bb      F
  q   q   q     q   e q   e   q   q   q
|-1---1---1---|-1---1-----1-|-1---1---1---|B
|-3---3---1---|-1---1-1---1-|-3---3---1---|O
|-3---3---2---|-2---2-0---2-|-3---3---2--o|T
|-3---3---3---|-3---3-2---3-|-3---3---3--o|H
|---------3---|-3---3-3---3-|---------3---|
|-------------|-------------|-------------|

Electric overdriven w/chorus
  e     q   e       q   e       e q   q   q     e     q
|-----------------|---------|-----------------|---------|E
|-----------------|---------|-----------------|---------|L
4-----------------2---------4-----------------2---------|E
4-5-----5---5-----4-5---5---4---5-5---5---5---4-5-----5-|C
|-7-----5---8-----|-5---7---|---5-7---8---5---|-7-----5-|
|-----------------|---------|-----------------|---------|
                                                        |
  C                                                     |
|-0-----0---0-----|-0---0---|---0-0---0---0---|-0-----0-|A
|-1-----1---1-----|-1---1---|---1-1---1---1---|-1-----1-|C
4-0-----0---0-----2-0---0---4---0-0---0---0---2-0-----0-|O
4-2-----2---2-----4-2---2---4---2-2---2---2---4-2-----2-|U
|-3-----3---3-----|-3---3---|---3-3---3---3---|-3-----3-|S
|-----------------|---------|-----------------|---------|

    e     q   e       e q   q   q     e     q   e       q   e
|-----------------|-----------------|-----------------|---------|E
|-----------------|-----------------|-----------------|---------|L
4---5-------------|---------5-------|-----------------2---------|E
4---5-----5---5---|---5-5---5---5-/-|-10----10--10----4-10--10--|C
|---8-----5---7---|---5-7---8---7-/-|-12----10--13----|-10--12--|
|-----------------|-----------------|-----------------|---------|
                                                                |
    C                                 F                         |
|---0-----0---0---|---0-0---0---0---|-1-----1---1-----|-1---1---|A
|---1-----1---1---|---1-1---1---1---|-1-----1---1-----|-1---1---|C
4---0-----0---0---|---0-0---0---0---|-2-----2---2-----2-2---2---|O
4---2-----2---2---|---2-2---2---2---|-3-----3---3-----4-3---3---|U
|---3-----3---3---|---3-3---3---3---|-3-----3---3-----|-3---3---|S
|-----------------|-----------------|-1-----1---1-----|-1---1---|

    e q   q   q     e     q   e       q   e       e q   q   q
|-----------------|-----------------|---------|-----------------|E
|-----------------|-----------------|---------|-----------------|L
4-----------------|-----------------2---------4-----------------|E
4---1010--10--10\-|-5-----5---5-----4-5---5---4---5-5---5---5---|C
|---1012--13--12\-|-7-----5---8-----|-5---7---|---5-7---8---7---|
|-----------------|-----------------|---------|-----------------|
                                                                |
                    C                                           |
|---1-1---1---1---|-0-----0---0-----|-0---0---|---0-0---0---0---|A
|---1-1---1---1---|-1-----1---1-----|-1---1---|---1-1---1---1---|C
4---2-2---2---2---|-0-----0---0-----2-0---0---4---0-0---0---0---|O
4---3-3---3---3---|-2-----2---2-----4-2---2---4---2-2---2---2---|U
|---3-3---3---3---|-3-----3---3-----|-3---3---|---3-3---3---3---|S
|---1-1---1---1---|-----------------|---------|-----------------|

  Repeat 3 times, heavily overdriven w/chorus
  Q     Q     q     Q     q     q     Q     Q     q     Q     q     q
|-----------------|-----------------|-----------------|-----------------|
|-----------------|-----------------|-----------------|-----------------|
|o----------------|-----------------|-----------------|-----------------|
|o----------------|-6-----4-----3---|-----------------|-6-----4-----3\--|
|-4-----------4---|-----------------|-4-----------4---|-----------------|
|-------4---------|-----------------|-------4---------|-----------------|

  Q     Q     q     Q     Q     q     Q     Q     q     Q     Q     q
|-----------------|-----------------|-----------------|-----------------|
|-----------------|-----------------|-----------------|-----------------|
|-----------------|-----------------|-----------------|----------------o|
|-----------------|-----------------|-----------------|----------------o|
|-3---------------|-3---------------|-3---------------|-3---------------|
|-------1-----3---|-------1-----3---|-------1-----3---|-------1-----3---|

  Repeat 4 times, clean tone w/chorus
  Db/F  Db/Gb       Db/F  Db/Gb       Db/F  Db/Gb       Db/F  Db/Gb
  e e e q   e q     e e e q   e q     e e e q   e q     e e e q   e q
|-----------------|-----------------|-----------------|-----------------|
|-----------------|-----------------|-----------------|-----------------|
|o----6-------6---|-----6-------6---|-----6-------6---|-----6-------6---|
|o--6-------6-----|---6-------6-----|---6-------6-----|---6-------6-----|
|-8-----9---------|-8-----9---------|-8-----9---------|-8-----9---------|
|-----------------|-----------------|-----------------|-----------------|

  C/E   C/F         C/E   C/F         C/E   C/F         C/E   C/F
  e e e q   e q     e e e q   e q     e e e q   e q     e e e q   e q
|-----------------|-----------------|-----------------|-----------------|
|-----------------|-----------------|-----------------|-----------------|
|-----5-------5---|-----5-------5---|-----5-------5---|-----5-------5--o|
|---5-------5-----|---5-------5-----|---5-------5-----|---5-------5----o|
|-7-----8---------|-7-----8---------|-7-----8---------|-7-----8---------|
|-----------------|-----------------|-----------------|-----------------|

  Db/F    Db/Gb     Db/F    Db/Gb     C/E     C/F       C/E     C/F
  q   q   q   q     q   q   q   q     q   q   q   q     q   q   q   q
|-----------------|-----------------|-----------------|-----------------|
|----(6)-----(6)--|----(6)-----(6)--|----(5)-----(5)--|----(5)-----(5)--|
|o----6-------6---|-----6-------6--o|o----5-------5---|-----5-------5--o|
|o----6-------6---|-----6-------6--o|o----5-------5---|-----5-------5--o|
|-8-------9-------|-8-------9-------|-7-------8-------|-7-------8-------|
|-----------------|-----------------|-----------------|-----------------|

  Db/F    Db/Gb     Db/F    Db/Gb     Db/F    Db/Gb     Db/F    Db/Gb
  q   e e q   e e   q   e e q   e e   q   e e q   e e   q   e e q   q
|-----------------|-----------------|-----------------|-----------------|
|-----6-6-----6-6-|-----6-6-----6-6-|-----6-6-----6-6-|-----6-6-----6---|
|-----6-6-----6-6-|-----6-6-----6-6-|-----6-6-----6-6-|-----6-6-----6---|
|-6---6-6-6---6-6-|-6---6-6-6---6-6-|-6---6-6-6---6-6-|-6---6-6-6---6---|
|-8-------9-------|-8-------9-------|-8-------9-------|-8-------9-------|
|-----------------|-----------------|-----------------|-----------------|

  C/E     C/F       C/E     C/F       C/E     C/F       C/E     C/F
  q   e e q   e e   q   e e q   e e   q   e e q   e e   q   e e q   q
|-----------------|-----------------|-----------------|-----------------|
|-----5-5-----5-5-|-----5-5-----5-5-|-----5-5-----5-5-|-----5-5-----5---|
|-----5-5-----5-5-|-----5-5-----5-5-|-----5-5-----5-5-|-----5-5-----5---|
|-5---5-5-5---5-5-|-5---5-5-5---5-5-|-5---5-5-5---5-5-|-5---5-5-5---5---|
|-7-------8-------|-7-------8-------|-7-------8-------|-7-------8-------|
|-----------------|-----------------|-----------------|-----------------|

  Heavily overdriven w/chorus
                                The   foc - us    is    sharp in...)
                                      Dbs4
  Q     Q     q     Q     Q     q     Q                 Q     Q
|-----------------|-----------------|-9-----9---------|-9-----9---------|
|-----------------|-----------------|-9-----9---------|-9-----9---------|
|-----------------|-----------------|-11----11--------|-11----11--------|
|-----------------|-6-----4-----3---|-11----11--------|-11----11--------|
|-4-----------4---|-----------------|-11----11--------|-11----11--------|
|-------4---------|-----------------|-9-----9---------|-9-----9---------|

                                      Bbs2
          hw                          w+
|---------9-------|-----------------|-----------------|-----------------|
|---------9-------|-----------------|-1---------------|-----------------|
|---------11------|-----------------|-3---------------|-----------------|
|---------11------|-----------------|-3---------------|-----------------|
|---------11------|-----------------|-3---------------|-----------------|
|---------9-------|-----------------|-----------------|-----------------|

                                      C/G   G           F
                                      Q     he          w
|-----------------|-----------------|-----------------|-1---------------|
|-----------------|-----------------|-5-----3---------|-1---------------|
|-----------------|-----------------|o5-----4---------|-2---------------|
|-----------------|-----------------|o5-----5---------|-3---------------|
|-----------------|-----------------|-3-----5---------|-3---------------|
|-----------------|-----------------|-3-----3---------|-1---------------|

  Bbs2                                C/G   G     F     Bbs2
  ww                                  Q     Q     q     he        q   e
|-----------------|-----------------|-------------1---|-----------------|
|-1---------------|-----------------|-5-----3-----1---|-1---------------|
|-3---------------|----------------o|-5-----4-----2---|-3---------------|
|-3---------------|----------------o|-5-----5-----3---|-3-------------3-|
|-3---------------|-----------------|-3-----5-----3---|-3---------3-----|
|-----------------|-----------------|-3-----3-----1---|-----------------|

                    C/G   G           F                 Bbs2
    q   q   e e e   Q     he          w                 he        q   e
|-------------0-0-|-----------------|-1---------------|-----------------|
|-----------1-----|-5-----3---------|-1---------------|-1---------1-----|
|---0---3---------|-5-----4---------|-2---------------|-3-------------3-|
|-----------------|-5-----5---------|-3---------------|-3---------------|
|-----------------|-3-----5---------|-3---------------|-3---------------|
|-----------------|-3-----2---------|-1---------------|-----------------|

                    C/G   G     F     Bbs2
  q   e q   e q     Q     Q     q     w+
|-----------------|-------------1---|-----------------|-----------------|
|-------1---------|-5-----3-----1---|-1---------------|-----------------|
|-0---3-----3-0---|-5-----4-----2---|-3---------------|-----------------|
|-----------------|-5-----5-----3---|-3---------------|-----------------|
|-----------------|-3-----5-----3---|-3---------------|-----------------|
|-----------------|-3-----3-----1---|-----------------|-----------------|

|---------------------|
|---------------------|
5---------------------|
4---------------------|
|---------------------|
|---------------------|

Note:  tablature compressed below
                                              Heavily
                                              overdriven w/chorus
  -- guitar rests during synth bridge --      h+
|---------|---------|---------|---------|---------|---------|
|---------|---------|---------|---------|---------|---------|
4---------|---------|---------|---------|---------|---------|
4---------|---------|---------|---------|---------|---------|
|---------|---------|---------|---------|-----3---|---------|
|---------|---------|---------|---------|---------|---------|

                      Q  Q  q   Q  Q  q   Q  Q  q   Q  Q  q
|---------|---------|---------|---------|---------|---------|
|---------|---------|---------|---------|---------|---------|
|---------|---------|o--------|---------|---------|---------|
|---------|---------|o--------|---------|---------|---------|
|---------|---------|-4-----4-|-6--4--3-|-4-----4-|-6--4--3-|
|---------|---------|----4----|---------|----4----|---------|

  Q  Q  q   Q  Q  q   Q  Q  q   Q  Q  q
|---------|---------|---------|---------|
|---------|---------|---------|---------|
|---------|---------|---------|--------o|
|---------|---------|---------|--------o|
|-3-------|-3-------|-3-------|-3-------|
|----1--3-|----1--3-|----1--3-|----1--3-|

Note:  tablature normal width below

 Overdriven w/chorus
  e     q   e       q   e       e q   q   q     e     q     e     q   e
|-----------------|---------|-----------------|---------|-----------------|
|-----------------|---------|-----------------|---------|-----------------|
|-----------------2---------4-----------------2---------4-----------------|
|-5-----5---5-----4-5---5---4---5-5---5---5---4-5-----5-4---5-----5---5---|
|-7-----5---8-----|-5---7---|---5-7---8---5---|-7-----5-|---8-----5---7---|
|-----------------|---------|-----------------|---------|-----------------|

    e q   q   q
|-----------------|
|-----------------|
|-----------------|
|---5-5---5---5---|
|---5-7---8---5---|
|-----------------|

  Wide angle watcher...
  Repeat 3 times, electric w/clean tone & chorus, acoustic (Nashville
  tuned).
  C                                                   F     C   F
  q   e e e e   q   e e e e   q   e e e e   q   q     q   e q   e
|-0---0-0-0-0-|-0---0-0-0-0-|-0---0-0-0-0-|-0---0---|-1---1-----1-|B
|-1---1-1-1-1-|-1---1-1-1-1-|-1---1-1-1-1-|-1---1---|-1---1-1---1-|O
3o0---0-0-0-0-|-0---0-0-0-0-|-0---0-0-0-0-2-0---0---3-2---2-0---2-|T
4o2---2-2-2-2-|-2---2-2-2-2-|-2---2-2-2-2-4-2---2---4-3---3-2---3-|H
|-3---3-3-3-3-|-3---3-3-3-3-|-3---3-3-3-3-|-3---3---|-3---3-3---3-|
|-------------|-------------|-------------|---------|-------------|

  Bb      F           C   F   Bb      F
  q   q   q     q   e q   e   q   q   q
|-1---1---1---|-1---1-----1-|-1---1---1---|B
|-3---3---1---|-1---1-1---1-|-3---3---1---|O
|-3---3---2---|-2---2-0---2-|-3---3---2--o|T
|-3---3---3---|-3---3-2---3-|-3---3---3--o|H
|---------3---|-3---3-3---3-|---------3---|
|-------------|-------------|-------------|

Electric overdriven w/chorus
  e     q   e       q   e       e q   q   q     e     q
|-----------------|---------|-----------------|---------|E
|-----------------|---------|-----------------|---------|L
4-----------------2---------4-----------------2---------|E
4-5-----5---5-----4-5---5---4---5-5---5---5---4-5-----5-|C
|-7-----5---8-----|-5---7---|---5-7---8---5---|-7-----5-|
|-----------------|---------|-----------------|---------|
                                                        |
  C                                                     |
|-0-----0---0-----|-0---0---|---0-0---0---0---|-0-----0-|A
|-1-----1---1-----|-1---1---|---1-1---1---1---|-1-----1-|C
4-0-----0---0-----2-0---0---4---0-0---0---0---2-0-----0-|O
4-2-----2---2-----4-2---2---4---2-2---2---2---4-2-----2-|U
|-3-----3---3-----|-3---3---|---3-3---3---3---|-3-----3-|S
|-----------------|---------|-----------------|---------|

    e     q   e       e q   q   q     e     q   e       q   e
|-----------------|-----------------|-----------------|---------|E
|-----------------|-----------------|-----------------|---------|L
4-----------------|-----------------|-----------------2---------|E
4---5-----5---5---|---5-5---5---5-/-|-10----10--10----4-10--10--|C
|---8-----5---7---|---5-5---8---7-/-|-12----10--13----|-10--12--|
|-----------------|-----------------|-----------------|---------|
                                                                |
                                      F                         |
|---0-----0---0---|---0-0---0---0---|-1-----1---1-----|-1---1---|A
|---1-----1---1---|---1-1---1---1---|-1-----1---1-----|-1---1---|C
|---0-----0---0---|---0-0---0---0---|-2-----2---2-----2-2---2---|O
|---2-----2---2---|---2-2---2---2---|-3-----3---3-----4-3---3---|U
|---3-----3---3---|---3-3---3---3---|-3-----3---3-----|-3---3---|S
|-----------------|-----------------|-1-----1---1-----|-1---1---|

    e q   q   q     e     q   e       q   e       e q   q   q
|-----------------|-----------------|---------|-----------------|E
|-----------------|-----------------|---------|-----------------|L
4-----------------|-----------------2---------4-----------------|E
4---1010--10--10\-|-5-----5---5-----4-5---5---4---5-5---5---5---|C
|---1012--13--12\-|-7-----5---8-----|-5---7---|---5-7---8---7---|
|-----------------|-----------------|---------|-----------------|
                                                                |
                    C                                           |
|---1-1---1---1---|-0-----0---0-----|-0---0---|---0-0---0---0---|A
|---1-1---1---1---|-1-----1---1-----|-1---1---|---1-1---1---1---|C
4---2-2---2---2---|-0-----0---0-----2-0---0---4---0-0---0---0---|O
4---3-3---3---3---|-2-----2---2-----4-2---2---4---2-2---2---2---|U
|---3-3---3---3---|-3-----3---3-----|-3---3---|---3-3---3---3---|S
|---1-1---1---1---|-----------------|---------|-----------------|

  Q     Q     q     Q     q     q     Q     Q     q     Q     q     q
|-----------------|-----------------|-----------------|-----------------|
|-----------------|-----------------|-----------------|-----------------|
|o----------------|-----------------|-----------------|-----------------|
|o----------------|-6-----4-----3---|-----------------|-6-----4-----3\--|
|-4-----------4---|-----------------|-4-----------4---|-----------------|
|-------4---------|-----------------|-------4---------|-----------------|

  Q     Q     q     Q     Q     q     Q     Q     q     Q     Q     q
|-----------------|-----------------|-----------------|-----------------|
|-----------------|-----------------|-----------------|-----------------|
|-----------------|-----------------|-----------------|----------------o|
|-----------------|-----------------|-----------------|----------------o|
|-3---------------|-3---------------|-3---------------|-3---------------|
|-------1-----3---|-------1-----3---|-------1-----3---|-------1-----3---|

                        They seem oblivious...
  Repeat 4 times, clean tone w/chorus
  Db/F  Db/Gb       Db/F  Db/Gb       Db/F  Db/Gb       Db/F  Db/Gb
  e e e q   e q     e e e q   e q     e e e q   e q     e e e q   e q
|-----------------|-----------------|-----------------|-----------------|
|-----------------|-----------------|-----------------|-----------------|
|o----6-------6---|-----6-------6---|-----6-------6---|-----6-------6---|
|o--6-------6-----|---6-------6-----|---6-------6-----|---6-------6-----|
|-8-----9---------|-8-----9---------|-8-----9---------|-8-----9---------|
|-----------------|-----------------|-----------------|-----------------|

  C/E   C/F         C/E   C/F         C/E   C/F         C/E   C/F
  e e e q   e q     e e e q   e q     e e e q   e q     e e e q   e q
|-----------------|-----------------|-----------------|-----------------|
|-----------------|-----------------|-----------------|-----------------|
|-----5-------5---|-----5-------5---|-----5-------5---|-----5-------5--o|
|---5-------5-----|---5-------5-----|---5-------5-----|---5-------5----o|
|-7-----8---------|-7-----8---------|-7-----8---------|-7-----8---------|
|-----------------|-----------------|-----------------|-----------------|

  Guitar Solo, thick heavily overdriven tone with chorus & ambient reverb
                                                        h       h
  ww                                  q   Hh              1       r
|-----------------|-----------------|-11--13----------|(13^)---(13^)----|
|-14--------------|-----------------|-----------------|-----------------|
|-----------------|-----------------|-----------------|-----------------|
|-----------------|-----------------|-----------------|-----------------|
|-----------------|-----------------|-----------------|-----------------|
|-----------------|-----------------|-----------------|-----------------|

  H           e ew                    q   e he          e e H
|-12--------------|-----------------|-----------------|-12--------------|
|-------------15--|-----------------|-13--1511--------|---13------------|
|---------------12|-----------------|-----------------|-----12----------|
|-----------------|-----------------|-----------------|-----------------|
|-----------------|-----------------|-----------------|-----------------|
|-----------------|-----------------|-----------------|-----------------|

  wQ                      h       e   w                 q   q   q   sss
|-----------------|-----------------|-----------------|----------1---hp-|
|-----------------|-----------------|-----------------|-6---7--(7^)-676-|
|-----------------|-----------------|-6---------------|-----------------|
|-----------------|-------3-------4-|-----------------|-----------------|
|-4---------------|-----------------|-----------------|-----------------|
|-----------------|-----------------|-----------------|-----------------|

                                      eq                  e   Q       e
  h       q   q     he        Q        2                   r   2    (p)
|-----------------|--2-slow---------|-5^-slow---------|--(5^)-5^------0-|
|-5-------5---6---|-6^-rel----5-----|----bend---------|-----------------|
|-----------------|-----------------|-----------------|-----------------|
|-----------------|-----------------|-----------------|-----------------|
|-----------------|-----------------|-----------------|-----------------|
|-----------------|-----------------|-----------------|-----------------|

Note:  tablature expanded

  Q            q       e  S  S  S   S  S  S  S  S   e   e   e   e
|-13----------13------13--16-13-13|-13-16-13-13-13--16--13--16--13--|
|---------------------------------|---------------------------------|
|---------------------------------|---------------------------------|
|---------------------------------|---------------------------------|
|---------------------------------|---------------------------------|
|---------------------------------|---------------------------------|

  e   Q               e   e   e     h               e   Q
|-16--13--------------13----------|---2---------------2---r---------|
|-------------------------16--14--|-16^-------------16^-16^---------|
|---------------------------------|---------------------------------|
|---------------------------------|---------------------------------|
|---------------------------------|---------------------------------|
|---------------------------------|---------------------------------|

  q       h                         h               e   e   e   e
|p----------2-(slowly)----------2-|---2-------2---r-p---------2-----|
|-13-----[15^]---------------[15^]|[15^]---[15^-15^]13-----[15^]----|
|---------------------------------|---------------------------------|
|---------------------------------|---------------------------------|
|---------------------------------|---------------------------------|
|---------------------------------|---------------------------------|

  q       q       q       q         S  S  E     Q
|---2-------2-------2-------2-----|---2-r-p-------------------------|
|-15^-----15^-----15^-----15^-----|-15^15-13----13------------------|
|---------------------------------|---------------------------------|
|---------------------------------|---------------------------------|
|---------------------------------|---------------------------------|
|---------------------------------|---------------------------------|

  4/4 Repeat 4 times (tab expanded additionally for clarity)
  s   s   s   s   s   s   s   s   s   s   s   s   s   s   s   s
|----p---------------p---------------p---------------p------------|
|-18--14------14--18--14------14--18--14------14--18--14------14--|
|o--------16------**------16------**------16------**------16-----o|
|o---------------------------------------------------------------o|
|-----------------------------------------------------------------|
|-----------------------------------------------------------------|
** - possibly hammered on, not 100% sure either way

  s   s   s   s   s   s   s   s   s   s   s   s   s   s   s   s
|----p---------------p---------------p---------------p------------|
|-17--13------13--17--13------13--17--13------13--17--13------13--|
|-**------15------**------15------**------15------**------15------|
|-----------------------------------------------------------------|
|-----------------------------------------------------------------|
|-----------------------------------------------------------------|

  s   s   s   s   s   s   s   s   s   s   s   s   s   s   e
|----p---------------p---------------p---------------p------------|
|-17--13------13--17--13------13--17--13----------17--13----------|
|-**------15------**------15------**------15--15--**------15------|
|-----------------------------------------------------------------|
|-----------------------------------------------------------------|
|-----------------------------------------------------------------|

  E    E    E     e   s s s s s s   s s s S  e   e  e       qw+
|---------------------------------|---------------------------------|
|-15---13---15----17-13-1517131517|-13151713-15--17-13-------2------|
|---------------------------------|-------------------------9^------|
|---------------------------------|---------------------------------|
|---------------------------------|---------------------------------|
|---------------------------------|---------------------------------|

  Db/F    Db/Gb     Db/F    Db/Gb     Db/F    Db/Gb     Db/F    Db/Gb
  q   e e q   e e   q   e e q   e e   q   e e q   e e   q   e e q   q
|-----------------|-----------------|-----------------|-----------------|
|-----6-6-----6-6-|-----6-6-----6-6-|-----6-6-----6-6-|-----6-6-----6---|
|-----6-6-----6-6-|-----6-6-----6-6-|-----6-6-----6-6-|-----6-6-----6---|
|-6---6-6-6---6-6-|-6---6-6-6---6-6-|-6---6-6-6---6-6-|-6---6-6-6---6---|
|-8-------9-------|-8-------9-------|-8-------9-------|-8-------9-------|
|-----------------|-----------------|-----------------|-----------------|

  C/E     C/F       C/E     C/F       C/E     C/F       C/E     C/F
  q   e e q   e e   q   e e q   e e   q   e e q   e e   q   e e q   q
|-----------------|-----------------|-----------------|-----------------|
|-----5-5-----5-5-|-----5-5-----5-5-|-----5-5-----5-5-|-----5-5-----5---|
|-----5-5-----5-5-|-----5-5-----5-5-|-----5-5-----5-5-|-----5-5-----5---|
|-5---5-5-5---5-5-|-5---5-5-5---5-5-|-5---5-5-5---5-5-|-5---5-5-5---5---|
|-7-------8-------|-7-------8-------|-7-------8-------|-7-------8-------|
|-----------------|-----------------|-----------------|-----------------|

  Heavily overdriven w/chorus
                                The   fo -  cus   is    sharp in    the
                                      Bbs4
  Q     Q     q     Q     Q     q     Q                 Q     Q
|-----------------|-----------------|-9-----9---------|-9-----9---------|
|-----------------|-----------------|-9-----9---------|-9-----9---------|
|-----------------|-----------------|-11----11--------|-11----11--------|
|-----------------|-----------------|-11----11--------|-11----11--------|
|-4-----------4---|-6-----4-----3---|-11----11--------|-11----11--------|
|-------4---------|-----------------|-9-----9---------|-9-----9---------|

  ci  -   ty
          Flanger on
          h+
|---------9-------|-----------------|-----------------|-----------------|
|---------9-------|-----------------|-----------------|-----------------|
|---------11------|-----------------|-----------------|-----------------|
|---------11------|-----------------|-----------------|-----------------|
|---------11------|-----------------|-----------------|-----------------|
|---------9-------|-----------------|-----------------|-----------------|

  Continue to hold the chord except the note on G string which is
  released to the 10th fret to enable the "harp" harmonics which are
  sounded (shown in brackets "{}" 12 frets higher).  This may also
  be from feedback - I'm not 100% sure.

                    Fade
                    h       h
|-----------------|-----------------|
|-----------------|-----------------|
|-----------------|{22}-------------|
|-----------------|-----------------|
|-----------------|--------{23}-----|
|-----------------|-----------------|

6. Witch Hunt

this is a rather cool song. enjoy


e---------------------------|
b---------------------------|
g---------------------------|
d---------------------------|
a---------------------------|
e --3----9---10---5---6---2-|

do that a couple times

then

e-------------------------|
b-------------------------|
g-------------------------|
d--5--3--5--8--------9--7-|
a--5--3--5--8--------9--7-|
e-------------------------|


followed by

e---------------------|
b---------------------|
g-----------5-5--5-5--|
d-5-5--8-8--5-5--5-5--|
a-5-5--8-8--7-7--3-3--|
e-3-3--6-6------------|

im pretty sure thats right. once you get the rythmn down. listen to the album for help

7. Vital Signs


 _________________
| Intro - repeat  |
| with fade in    |
| Cm              |       Bb  Gm  Ab      Ab6
| q   q   q   q   | e e   e   e   e   e   Hw
|-8---8---8---8---|-8-8---6---3---4-|-4---4-----------|-----------------|
|-8---8---8---8---|-8-8---6---3---4-|-4---6-----------|-----------------|
|o8---8---8---8--o|-8-8---7---3---5-|-5---5-----------|-----------------|
|o10--10--10--10-o|-1010--8---5---6-|-6---x-----------|-----------------|
|-----------------|-----------------|-----6-----------|-----------------|
|-----------------|-----------------|-----------------|-----------------|

  Repeat 4 times
      Cm      Ab        Cm                    Ab        Cm
      e       e         e e           e       e         e e       e
|-----8-------4---|-----8-8---------|-8-------4-------|-8-8-------8-----|
|-----8-------4---|-----8-8---------|-8-------4-------|-8-8-------8-----|
|o----8-------5---|-----8-8---------|-8-------5-------|-8-8-------8----o|
|o----10------6---|-----1010--------|-10------6-------|-1010------10---o|
|-----------------|-----------------|-----------------|-----------------|
|-----------------|-----------------|-----------------|-----------------|

              Ab        Cm
      e       e         e e           e e e q   e e q     e e e
|-----8-------4---|-----8-8---------|-----------------|---------|
|-----8-------4---|-----8-8---------|-----------------|---------|
|-----8-------5---|-----8-8---------|-5---------------3---------|
|-----10------6---|-----1010--------|---5---6---------4---------|
|-----------------|-----------------|-----5-----6-----|-----6---|
|-----------------|-----------------|-------------6-8-|---8---8-|

  e e e e e e e e   e e e e e e e e   e e e e e e e e   e e e e e e e e
|-----------------|-----------------|-----------------|-----------------|
|-----------------|-----------------|-----------------|-----------------|
4-----------------|-----------------|o----------------|----------------o|
4-----------------|-----------------|o----------------|----------------o|
|-----------------|-------------6---|-----------------|-----------6-----|
|-6-6-6-6-6-6-6-6-|-6-6-6-6-8-8---6-|-6-6-6-6-6-6-6-6-|-6-6-6-6-8---8-6-|

                 by external interference...
                    Ab    Eb
  e e e e e e e e   e e   e   e   e     e e   e e e e   e e e e e e e e
|-----------------|-4-4-------------|-----------------|-----------------|
|-----------------|-4-4---8---8---8-|---6-------------|-----------------|
|-----------------|-5-5---8---8---8-|---7-6-----------|o----------------|
|-----------------|-6-6---8---8---8-|---8-8-----------|o----------------|
|-----------------|-6-6---6---6---6-|---8-8-----8-----|-----------------|
|-6-6-6-6-6-6-6-6-|-4-4-------------|-----6---8---8-6-|-6-6-6-6-6-6-6-6-|

                    Cm    Bb  G7m Ab      Ab6
  e e e e e e e e   e e   e   e   e   e   Hw
|-----------------|-8-8---6---3---4-|-4---4-----------|-----------------|
|-----------------|-8-8---6---3---4-|-4---6-----------|-----------------|
|----------------o|-8-8---7---3---5-|-5---5-----------|-----------------|
|----------------o|-1010--8---5---6-|-6---x-----------|-----------------|
|-----------6-----|-1010--8---5---6-|-6---6-----------|-----------------|
|-6-6-6-6-8---8-6-|-8-8---6---3---4-|-4---4-----------|-----------------|

  Chorus 1
      Cm                Bb                Bb                Ab
      e q   e           e q   e           e q   e           e q   e
|-----------8-----|-----------6-----|-----------6-----|-----------4-----|
|-----------8-----|-----------6-----|-----------6-----|-----------4-----|
|o----------8-----|-----------7-----|-----------7-----|-----------5-----|
|o----1010--------|-----8-8---------|-----8-8---------|-----6-6---------|
|-----1010--------|-----8-8---------|-----8-8---------|-----6-6---------|
|-----8-8---------|-----6-6---------|-----6-6---------|-----4-4---------|

                   ___________________________________ _____________
                  | ending 1                          | ending 2
      Cm          | Bb    G7m   Ab                    | Bb    G7m
      e q   e     | Q     Q     qw                    | Q     Q
|-----------8-----|-6-----3-----4---|-----------------|-6-----3-----|
|-----------8-----|-6-----3-----4---|-----------------|-6-----3-----|
|-----------8-----|-7-----3-----5---|----------------o3-7-----3-----|
|-----1010--------|-8-----3-----6---|----------------o4-8-----3-----|
|-----1010--------|-8-----5-----6---|-----------------|-8-----5-----|
|-----8--8--------|-7-----3-----4---|-----------------|-6-----3-----|

__________________________________________________
                                                  | Repeat 4 times
  Ab    Ab6     Abmaj7                            |     Cm      Ab
  Q     Q       ww                                |     e       e
|-4-----4-----|-3---------------|-----------------|-----8-------4---|
|-4-----6-----|-4---------------|-----------------|-----8-------4---|
|-5-----5-----4-5---------------|----------------o|o----8-------5---|
|-6-----x-----4-5---------------|----------------o|o----10------6---|
|-6-----6-----|-x---------------|-----------------|-----------------|
|-4-----4-----|-4---------------|-----------------|-----------------|

                    (*-single repeat delay, #-delay off)
      Cm                    Ab        Cm        #               Ab
      e e           e       e         e e       e       e       e
|-----8-8---------|-8---*---4---*---|-8-8-*-*---8-----|-8---*---4---*---|
|-----8-8---------|-8---*---4---*---|-8-8-*-*---8-----|-8---*---4---*---|
|-----8-8---------|-8---*---5---*---|-8-8-*-*---8----o|-8---*---5---*---|
|-----1010--------|-10--*---6---*---|-1010*-*---10---o|-10--*---6---*---|
|-----------------|-----------------|-----------------|-----------------|
|-----------------|-----------------|-----------------|-----------------|

                              Repeat 4 times
                              Bb
  e e e q   e e q     e e e   q   q   q   q     q   Q     e e e
|-----------------|---------|-----6-------6---|-----6-----------|
|-----------------|---------|-----6-------6---|-----6-----------|
|-5---------------2---------4o----7-------7---|-----7----------o|
|---5---6---------4---------4o----8-------8---|-----8----------o|
|-----6-----6-----|-----6---|-8-------8-------|-8-----------6---|
|-------------6-8-|---8---8-|-6-------6-------|-6---------8---8-|

  Cm    Bb      Ab                    Bb
  e e   e   e   e   q   e   e e e e   q   q   q   q     q   Q     e e e
|-8-8---6---6---4-|-4---4-----------|-----6-------6---|-----6-----------|
|-8-8---6---6---4-|-4---4-----------|-----6-------6---|-----6-----------|
|-8-8---7---7---5-|-5---5-----------|o----7-------7---|-----7----------o|
|-1010--8---8---6-|-6---6-----------|o----8-------8---|-----8----------o|
|-1010--8---8---6-|-6---6-----6-8---|-8-------8-------|-8-----------6---|
|-8-8---6---6---4-|-4---4---8-----6-|-6-------6-------|-6---------8---8-|

  Cm    Bb  G7m Ab      Ab6
  e e   e   e   e   e   Hw
|-8-8---6---3---4-|-4---4-----------|-----------------|
|-8-8---6---3---4-|-4---6-----------|-----------------|
|-8-8---7---3---5-|-5---5-----------|-----------------|
|-1010--8---3---6-|-5---x-----------|-----------------|
|-1010--8---5---6-|-6---6-----------|-----------------|
|-8-8---6---3---4-|-4---4-----------|-----------------|

  Chorus 2
      Cm                Bb                Bb                Ab
      e q   e           e q   e           e q   e           e q   e e
|-----------8-----|-----------------|-----------6-----|-----------------|
|-----------8-----|-----------------|-----------6-----|-----------------|
|o----------8-----|-----------------|-----------7-----|-----------------|
|o----1010--------|-----8-8---8-----|-----8-8---------|-----6-6---6-6---|
|-----1010--------|-----8-8---8-----|-----8-8---------|-----6-6---6-6---|
|-----8-8---------|-----6-6---6-----|-----6-6---------|-----4-4---4-4---|

                   ___________________________________ _____________
                  | ending 1                          | ending 2
      Cm          | Bb    G7m   Ab                    | Bb    G7m
      e q   e     | Q     Q     qw                    | Q     Q
|-----------8-----|-6-----3-----4---|-----------------|-6-----3-----|
|-----------8-----|-6-----3-----4---|-----------------|-6-----3-----|
|-----------8-----|-7-----3-----5---|----------------o3-7-----3-----|
|-----1010--------|-8-----3-----6---|----------------o4-8-----3-----|
|-----1010--------|-8-----5-----6---|-----------------|-8-----5-----|
|-----8--8--------|-7-----3-----4---|-----------------|-6-----3-----|

__________________________________________________
                                                  |
  Ab    Ab6     Abmaj7                            |
  Q     Q       ww                                |
|-4-----4-----|-3---------------|-----------------|
|-4-----6-----|-4---------------|-----------------|
|-5-----5-----4-5---------------|----------------o|
|-6-----x-----4-5---------------|----------------o|
|-6-----6-----|-x---------------|-----------------|
|-4-----4-----|-4---------------|-----------------|


Guitar tacet for 8 bars (bass solo)


  Repeat 3 times
  Cm                Bb                Abmaj7
  w                 w                 ww
|-8---------------|-6---------------|-3---------------|-----------------|
|-8---------------|-6---------------|-4---------------|-----------------|
|o8---------------|-7---------------|-5---------------|----------------o|
|o10--------------|-8---------------|-x---------------|----------------o|
|-10--------------|-8---------------|-6---------------|-----------------|
|-8---------------|-6---------------|-4---------------|-----------------|

  Cm                Bb                Abmaj7
  w                 w                 w                 h       h
|-8---------------|-6---------------|-3---------------|-3-------3-------|
|-8---------------|-6---------------|-4---------------|-4-------4-------|
|-8---------------|-7---------------|-5---------------|-5-------5-------|
|-10--------------|-8---------------|-x---------------|-x-------x-------|
|-10--------------|-8---------------|-6---------------|-6-------6-------|
|-8---------------|-6---------------|-4---------------|-4-------4-------|

  Cm                Bb                Ab                            Bb
  h       h         h       h         h       h         q   q   q   q
|-8-------8-------|-6-------6-------|-4-------4-------|-4---4---4---6---|
|-8-------8-------|-6-------6-------|-4-------4-------|-4---4---4---6---|
|o8-------8-------|-7-------7-------|-5-------5-------|-5---5---5---7--o|
|o10--------------|-8-------8-------|-6-------6-------|-6---6---6---8--o|
|-10--------------|-8---------------|-6-------6-------|-6---6---6---8---|
|-8---------------|-6---------------|-4-------4-------|-4---4---4---6---|

  Cm                Bb                Ab                        Bb
  h       q   q     h       h         h       h         q   q   q   q
|-8-------8-------|-6-------6-------|-4-------4-------|-----4-------6---|
|-8-------8-------|-6-------6-------|-4-------4-------|-----4-------6---|
|-8-------8-------|-7-------7-------|-5-------5-------|-5---5---7---7---|
|-10------10------|-8-------8-------|-6-------6-------|-6---6---8---8---|
|-10----------10\-|-8---------------|-6---------------|-6-------8-------|
|-8-----------8-\-|-6---------------|-4---------------|-4-------6-------|

  Cm                Bb                Ab                            Bb
  q   q   q   q     q   q   h         q   q   h         q   q   q   q
|---------8-------|-----6---6-------|---------4-------|---------4---6---|
|---------8-------|-----6---6-------|---------4-------|---------4---6---|
|---------8-------|-----7---7-------|---------5-------|-5---5---5---7---|
|-10--10--10------|-8---8---8-------|-6---6---6-------|-6---6---6---8---|
|-10--10------10\-|-8---------------|-6---6-----------|-6---6---6---8---|
|-8---8-------8-\-|-6---------------|-4---4-----------|-4---4---4---6---|

  RF
  Cm                Bb                Ab                        Bb
  q   q   q   q     q   q   q   q     q   q   h         q   q   q   q
|---------8-------|---------6-------|---------4-------|-----4-------6---|
|---------8-------|---------6-------|---------4-------|-----4-------6---|
|o--------8-------|---------7-------|---------5-------|-----5-------7--o|
|o10--10--10------|-8---8---8-------|-6---6---6-------|-6---6---8---8--o|
|-10--10------10\-|-8---8-------8---|-6---6-----------|-6-------8-------|
|-8---8-------8-\-|-6---6-------6---|-4---4-----------|-4-------6-------|


End tab

Thanks For Reading!
Happy Shredding!
Please rate my compilation!
Добавлено: 16.09.2013
Другие материалы по этой песне:
  • Аккорды и текст

Страница создана 16.09.2013
http://primanota.ru/rush/moving-pictures-chords.htm
Привет, Гость.
Предлагаем пройти революционный курс по гитаре.
Подарок от PrimaNota.Ru, забирай!