PrimaNota.ru - самый крупный в мире бесплатный архив песенных текстов, аккордов, табулатур и нот


Rush - Malignant Narcissism - текст песни, таба, бас-таба, драм-таба, видео

Регистрация Запомнить меня
Войти через:  Facebook Google Twitter Vk Yandex Mail.ru

Rush - Malignant Narcissism - текст песни, таба, бас-таба, драм-таба, видео

Печатать
Просмотров: 203
Уроки эстрадного вокала в Санкт-Петербурге
Авторы музыки: Geddy Lee, Alex Lifeson

  Tabbed by Brett
Album Snakes and Arrows:2007
Pretty cool song
Intro            This is in order
e|---------------------------|      
B|---------------------------|      
G|-0----------------0--------|      
D|-2----------------2--------|      
A|-2----------------2--------|      
E|---------------------------|      

                      Verse riffs :19
e|----11-10-8--10-10-10-10-10-8--8--8--8--8--8--8--10-10-10-10-10-10|
B|-10-10-10-10-10-10-10-10-10-10-10-10-10-10-10-10-10-10-10-10-10-10|
G|------------------------------------------------------------------| x2
D|------------------------------------------------------------------|
A|------------------------------------------------------------------|
E|------------------------------------------------------------------|
                        
e|-------------------------------------|
B|-------------------------------------|
G|-0--------0--------0--------0--------|
D|-2--------2--------2--------2--------|
A|-2--------2--------2--------2--------|
E|-------------------------------------|

e|----11-10-8--10-10-10-10-10-8--8--8--8--8--8--8--10-10-10-10-10-10|
B|-10-10-10-10-10-10-10-10-10-10-10-10-10-10-10-10-10-10-10-10-10-10|
G|------------------------------------------------------------------|
D|------------------------------------------------------------------|
A|------------------------------------------------------------------|
E|------------------------------------------------------------------|
        second time at :50
e|----11-10-8--10-10-10-10-10-8--8--8--8--8--8--8--10-8--8--8--10-10
B|-10-10-10-10-10-10-10-10-10-10-10-10-10-10-10-10-10-10-10-10-10-10|
G|------------------------------------------------------------------|
D|------------------------------------------------------------------|
A|------------------------------------------------------------------|
E|------------------------------------------------------------------|

e|----11-10-8--10-10-10-10-10-8--8--8--8--8--8--8--10-10-10-10-10-10|
B|-10-10-10-10-10-10-10-10-10-10-10-10-10-10-10-10-10-10-10-10-10-10|
G|------------------------------------------------------------------|
D|------------------------------------------------------------------|
A|------------------------------------------------------------------|
E|------------------------------------------------------------------|

e|-0---10--11--10|  Hold for 25 beats
B|-10--10--11--10|
D|---------------|
A|---------------|
E|---------------|

e|----------------------------------|
B|----------------------------------|
G|-2----------------2----2-----2----|
D|-2----------------2----2-----2----|
A|-0----------------0----0-----0----|
E|----------------------------------|

e|------------------------------------------------|
B|-11-11-11-11-11-11-11-11-11-11-11-11-11-11-11-11|
G|------------------------------------------------|
D|------------------------------------------------|
A|------------------------------------------------|
E|------------------------------------------------|

e|------------------------------------------------|
B|-11-11-11-11-11-11-11-11-11-11-11-11-11-11-11-11|
G|------------------------------------------------|
D|------------------------------------------------|
A|------------------------------------------------|
E|------------------------------------------------|

e|--------------------------------|
B|--------------------------------|
G|-4-4-4-4-4-4-4-4-4-4-4-4-4-4-4-4|
D|-2-2-2-2-2-2-2-2-2-2-2-2-2-2-2-2|
A|-0-0-0-0-0-0-0-0-0-0-0-0-0-0-0-0|
E|--------------------------------|

e|------------------------------------|
B|------------------------------------|
G|------------------------------------| x2
D|-7---5-7-8-7-5h7-7-7-7---5-7-8-8-8-8|
A|--0-0-----------------0-0-----------|
E|------------------------------------|

     Outro
e|----------------------------------|      
B|----------------------------------|
G|----------------------------------|
D|-8-7-5-7--7-5-4-5--5-4-4---2------|
A|----------------------7----2------|
E|---------------------------0------|

e|------------------------------------|
B|------------------------------------|
G|------------------------------------| 
D|-7---5-7-8-7-5h7-7-7-7---5-7-8-8-8-8|
A|--0-0-----------------0-0-----------|
E|------------------------------------|

e|------|
B|------|
G|-2-2-2|
D|-2-2-2|
A|-0-0-0|
E|------|






Добавлено: 29.06.2012
Другие материалы по этой песне:

Страница создана 27.02.2012
http://primanota.ru/rush/malignant-narcissism-chords.htm
Привет, Гость.
Предлагаем пройти революционный курс по гитаре.
Подарок от PrimaNota.Ru, забирай!