PrimaNota.ru - самый крупный в мире бесплатный архив песенных текстов, аккордов, табулатур и нот


Rush - Headlong Flight - текст песни, таба, бас-таба, видео

Регистрация Запомнить меня
Войти через:  Facebook Google Twitter Vk Yandex Mail.ru

Rush - Headlong Flight - текст песни, таба, бас-таба, видео

Печатать
Просмотров: 76
Авторы музыки: Geddy Lee, Alex Lifeson
Авторы текста: Neil Peart
Update 12/30/12: added solo and various 2nd guitar parts.
Consult my pro tab on this song for any issues with timing, they should mirror 
each other pretty well.

e-|--------------------------------------------------------------------|
B-|-o---------------------------------------------------------------o--|
G-|--------------------------------------------------------------------|
D-|-------------------------5-7-5--------------------------------------|
A-|-o---7-5------5-7-5------------7--5-7-5------5-7-5---5-----------o--|
E-|---------7--7-------7--7----------------7--7-------7---7-5-7-5-3----|


A second guitar plays this at the beginning:

e--------------------------------------
B-o----------------------------------o-
G--------------------------------------
D----5-7-5-------5-7-5-------5-7-5-----
A-o--5-7-5-------5-7-5-------5-7-5---o-
E----------0---0-------0---0-----------


e-|-------------------------------------------------------------------------|
B-|-o--------------------------------------------------------------------o--|
G-|----------------------7--7-7---5-5-5--------------------7-9-9-9-9-9------|
D-|----------------------7--7-7---5-5-5--------------------7-9-9-9-9-9------|
A-|-o--------------------5--5-5---3-3-3--------------------5-7-7-7-7-7---o--|
E-|----0-0-0-3-0-0-5-0-0-----------------0-0-0-3-0-0-5-0-0------------------|


e-0--x-0--x--0---0--0----0--x-0--x--0---0--0----7-7-7-7--7-7-7-7-7--7-7-7-7-7-|
B-8--x-7--x--8---8--8----8--x-7--x--8---8--8----8-8-8-8--8-8-8-8-8--8-8-8-7-7-|
G-9--x-9--x--9---9--9----9--x-9--x--9---9--9----9-9-9-9--9-9-9-9-9--9-9-9-9-9-|
D-10-x-10-x-10---10-10---10-x-10-x-10---10-10---------------------------------|
A-10---10---10---10-10---10---10---10---10-10---------------------------------|
E-----------------------------------------------------------------------------|


e---7-7-7-7--7-7-7-7-7--7-7-7-7-7---|
B---8-8-8-8--8-8-8-8-8--8-8-8-7-7---|
G---9-9-9-9--9-9-9-9-9--9-9-9-9-9---|
D-----------------------------------|
A-----------------------------------|
E-----------------------------------|


e-0--0--0---0-0-00------0--0--0---0-0-00-------7-7-7-7--7-7-7-7-7--7-7-7-7-7-|
B-5--5--5---5-5-44------5--5--5---5-5-44-------8-8-8-8--8-8-8-8-8--8-8-8-7-7-|
G-6--6--6---6-6-66------6--6--6---6-6-66-------9-9-9-9--9-9-9-9-9--9-9-9-9-9-|
D-7--7--7---7-7-77------7--7--7---7-7-77-------------------------------------|
A-7--7--7---7-7-77------7--7--7---7-7-77-------------------------------------|
E----------------------------------------------------------------------------|


e---7-7-7-7--7-7-7-7-7--7-7-7-7-7---|
B---8-8-8-8--8-8-8-8-8--8-8-8-7-7---|
G---9-9-9-9--9-9-9-9-9--9-9-9-9-9---|
D-----------------------------------|
A-----------------------------------|
E-----------------------------------|

e----------------------------------------------------------------------------|
B----------------------------------------------------------------------------|
G----------------------------------------------------------------------------|
D--2-2-2-2--2-2-2-2-2--2-2-2-2-2---------------------------------------------|
A--2-2-2-2--2-2-2-2-2--2-2-2-2-2---------------------------------------------|
E--0-0-0-0--0-0-0-0-0--0-0-0-0-0---------------------------------------------|

e-|-------------------------------------------------------------------------|
B-|-o--------------------------------------------------------------------o--|
G-|----------------------7--7-7---5-5-5--------------------7-9-9-9-9-9------|
D-|----------------------7--7-7---5-5-5--------------------7-9-9-9-9-9------|
A-|-o--------------------5--5-5---3-3-3--------------------5-7-7-7-7-7---o--|
E-|----0-0-0-3-0-0-5-0-0-----------------0-0-0-3-0-0-5-0-0------------------|



e-0--x-0--x--0---0--0----0--x-0--x--0---0--0----0--0--0---0-0-00---|
B-8--x-7--x--8---8--8----8--x-7--x--8---8--8----5--5--5---5-5-44---|
G-9--x-9--x--9---9--9----9--x-9--x--9---9--9----6--6--6---6-6-66---|
D-10-x-10-x-10---10-10---10-x-10-x-10---10-10---7--7--7---7-7-77---|
A-10---10---10---10-10---10---10---10---10-10---7--7--7---7-7-77---|
E------------------------------------------------------------------|

e-0--0--0---0-0-00--------------------------------------|
B-5--5--5---5-5-44--------------------------------------|
G-6--6--6---6-6-66--------------------------------------|
D-7--7--7---7-7-77---2-2-2-2---2-2-2-2-2---2-2-2-2-2----|
A-7--7--7---7-7-77---2-2-2-2---2-2-2-2-2---2-2-2-2-2----|
E--------------------0-0-0-0---0-0-0-0-0---0-0-0-0-0----|

e-7-7-7-7---9-7---0-0-0-0--0-0---0--0--0--0---0--0----4-4-4-4-6-6-6-6---|
B-9-9-7-9---7-9---7-7-9-7--7-9---8--8--7--8---7--8----4-4-4-4-6-6-6-6---|
G-9-9-9-9---9-9---8-8-8-8--8-8---9--9--9--9---9--9----5-5-5-5-7-7-7-7---|
D-----------------9-9-9-9--9-9---10-10-10-10--10-10---6-6-6-6-8-8-8-8---|
A-----------------------------------------------------------------------|
E-----------------------------------------------------------------------|

e-------------------------------------------------------------|
B-------------------------------------------------------------|
G----------------4-4-4-4--4-4---5-5-5-5--5-5---2-2-2-2--2-2---|
D-2-2-2-2--2-2---4-4-4-4--4-4---5-5-5-5--5-5---2-2-2-2--2-2---|
A-2-2-2-2--2-2---2-2-2-2--2-2---3-3-3-3--3-3---0-0-0-0--0-0---|
E-0-0-0-0--0-0------------------------------------------------|

----------------------------------------------------------------|
----------------------------------------------------------------|
---------------4-4-4-4--4-4---5-5-5-5--5-5----------------------|
2-2-2-2--2-2---4-4-4-4--4-4---5-5-5-5--5-5----6-6-6-6-8-8-8-8---|
2-2-2-2--2-2---2-2-2-2--2-2---3-3-3-3--3-3----6-6-6-6-8-8-8-8---|
0-0-0-0--0-0----------------------------------4-4-4-4-6-6-6-6---|


e-|-------------------------------------------------------------------------|
B-|-o---------------------------------------------------------------------o-|
G-|----------------------7--7-7---5-5-5---------------------7-9-9-9-9-9-----|
D-|----------------------7--7-7---5-5-5---------------------7-9-9-9-9-9-----|
A-|-o--------------------5--5-5---3-3-3---------------------5-7-7-7-7-7---o-|
E-|----0-0-0-3-0-0-5-0-0------------------0-0-0-3-0-0-5-0-0-----------------|

e---0--x-0--x--0---0--0------0--x-0--x--0---0--0--------|
B---8--x-7--x--8---8--8------8--x-7--x--8---8--8--------|
G---9--x-9--x--9---9--9------9--x-9--x--9---9--9--------|
D---10-x-10-x-10---10-10-----10-x-10-x-10---10-10-------|
A---10---10---10---10-10-----10---10---10---10-10-------|
E-------------------------------------------------------|

e---7-7-7-7--7-7-7-7-7--7-7-7-7-7----7-7-7-7--7-7-7-7-7--7-7-7-7-7----|
B---8-8-8-8--8-8-8-8-8--8-8-8-7-7----8-8-8-8--8-8-8-8-8--8-8-8-7-7----|
G---9-9-9-9--9-9-9-9-9--9-9-9-9-9----9-9-9-9--9-9-9-9-9--9-9-9-9-9----|
D---------------------------------------------------------------------|
A---------------------------------------------------------------------|
E---------------------------------------------------------------------|



e-0--0--0---0-0-00------0--0--0---0-0-00----|
B-5--5--5---5-5-44------5--5--5---5-5-44----|
G-6--6--6---6-6-66------6--6--6---6-6-66----|
D-7--7--7---7-7-77------7--7--7---7-7-77----|
A-7--7--7---7-7-77------7--7--7---7-7-77----|
E-------------------------------------------|

e---7-7-7-7--7-7-7-7-7--7-7-7-7-7----7-7-7-7--7-7-7-7-7--7-7-7-7-7----|
B---8-8-8-8--8-8-8-8-8--8-8-8-7-7----8-8-8-8--8-8-8-8-8--8-8-8-7-7----|
G---9-9-9-9--9-9-9-9-9--9-9-9-9-9----9-9-9-9--9-9-9-9-9--9-9-9-9-9----|
D---------------------------------------------------------------------|
A---------------------------------------------------------------------|
E---------------------------------------------------------------------|

e----------------------------------------------------------------------------|
B----------------------------------------------------------------------------|
G----------------------------------------------------------------------------|
D--2-2-2-2--2-2-2-2-2--2-2-2-2-2--2-2-2-2--2-2-2-2-2--2-2-2-2-2--------------|
A--2-2-2-2--2-2-2-2-2--2-2-2-2-2--2-2-2-2--2-2-2-2-2--2-2-2-2-2--------------|
E--0-0-0-0--0-0-0-0-0--0-0-0-0-0--0-0-0-0--0-0-0-0-0--0-0-0-0-0--------------|

e-------------------------------------------------------------|
B-------------------------------------------------------------|
G----------------4-4-4-4--4-4---5-5-5-5--5-5---2-2-2-2--2-2---|
D-2-2-2-2--2-2---4-4-4-4--4-4---5-5-5-5--5-5---2-2-2-2--2-2---|
A-2-2-2-2--2-2---2-2-2-2--2-2---3-3-3-3--3-3---0-0-0-0--0-0---|
E-0-0-0-0--0-0------------------------------------------------|

e-----------------------------------------------------------------|
B-----------------------------------------------------------------|
G----------------4-4-4-4--4-4---5-5-5-5--5-5----------------------|
D-2-2-2-2--2-2---4-4-4-4--4-4---5-5-5-5--5-5----6-6-6-6-8-8-8-8---|
A-2-2-2-2--2-2---2-2-2-2--2-2---3-3-3-3--3-3----6-6-6-6-8-8-8-8---|
E-0-0-0-0--0-0----------------------------------4-4-4-4-6-6-6-6---|

optional second guitar during the above part:
e-7-7-7-7---9-7---0-0-0-0--0-0---0--0--0--0---0--0----5---5-5---5-5---|
B-9-9-7-9---7-9---7-7-9-7--7-9---8--8--7--8---7--8----5---5-5---5-5---|
G-9-9-9-9---9-9---8-8-8-8--8-8---9--9--9--9---9--9----6---6-6---6-6---|
D-----------------9-9-9-9--9-9---10-10-10-10--10-10---7---7-7---7-7---|
A---------------------------------------------------------------------|
E---------------------------------------------------------------------|

e-7-7-7-7---9-7---0-0-0-0--0-0---0--0--0--0---0--0----4-4-4-4-6-6-6-6---|
B-9-9-7-9---7-9---7-7-9-7--7-9---8--8--7--8---7--8----4-4-4-4-6-6-6-6---|
G-9-9-9-9---9-9---8-8-8-8--8-8---9--9--9--9---9--9----5-5-5-5-7-7-7-7---|
D-----------------9-9-9-9--9-9---10-10-10-10--10-10---6-6-6-6-8-8-8-8---|
A-----------------------------------------------------------------------|
E-----------------------------------------------------------------------|

Back to 1st guitar and moving on:
e----------------------------------------------------------------------|
B----------------------------------------------------------------------|
G----------------------------------------------------------------------|
D----------------------------------------------------------------------|
A--5-7-5-7-5------5-7-5------5-7-5-7-5------5-7-5------5-7-5-7-5-7-5---|
E------------0--0-------0--0-----------0--0-------0--0---------------0-|

e-----------------------------------------------------------|
B-----------------------------------------------------------|
G-----------------------------------------------------------|
D-----------------------------------------------------------|
A---5-7-5------5-7-5-7-5-7-5------5-7-5------5-7-5-7-5------|
E-0-------0--0---------------0--0-------0--0-----------0--0-|

e-------------------------------------------------------------------|
B-------------------------------------------------------------------|
G-------------------------------------------------------------------|
D-------------------------------------------------------------------|
A-5-7-5------5-7-5-7-5-7-5-----5-7-5------5-7-5-7-5------5-7-5------|
E-------0--0--------------0--0-------0--0-----------0--0-------0--0-|

e---------------------------------------------------------------------|
B---------------------------------------------------------------------|
G-------------------7--7-7---5-5-5---------------------7-9-9-9-9-9----|
D-------------------7--7-7---5-5-5---------------------7-9-9-9-9-9----|
A-------------------5--5-5---3-3-3---------------------5-7-7-7-7-7----|
E-0-0-0-3-0-0-5-0-0------------------0-0-0-3-0-0-5-0-0----------------|

e-|----7-7-7-7--7-7-7-7-7--7-7-7-7-7----7-7-7-7--7-7---|
B-|-o--8-8-8-8--8-8-8-8-8--8-8-8-7-7----8-8-8-8--8-8-o-|
D-|----9-9-9-9--9-9-9-9-9--9-9-9-9-9----9-9-9-9--9-9---|
G-|-o------------------------------------------------o-|
A-|----------------------------------------------------|
E-|----------------------------------------------------|

e--7-7-7-7--7-7-7-7-7--7-7-7-7-7----7-7-7-7--7-7-7-7-7-7-7-7-7-7-7-|
B--8-8-8-8--8-8-8-8-8--8-8-8-7-7----8-8-8-8--8-8-8-8-8-8-8-8-8-8-8-|
D--9-9-9-9--9-9-9-9-9--9-9-9-9-9----9-9-9-9--9-9-9-9-9-9-9-9-9-9-9-|
G------------------------------------------------------------------|
A------------------------------------------------------------------|
E------------------------------------------------------------------|

[epic] drum fill

e-|------------------------------------------------------------------|-------|
B-|-o--------------------------------------------------------------o-|-------|
G-|------------------------------------------------------------------|-------|
D-|------------------------------------------------------------------|--2~~~-|
A-|-o-5-7-5------5-7-5------5-7-5----5-7-5------5-7-5------5-7-5---o-|--2~~~-|
E-|---------0--0-------0--0----------------0--0-------0--0-----------|--0~~~-|


All of the following is written as straight 16th notes, but feel free to improvise as you see fit,
this is just my approximation. 

 1        2        3        4        1        2        3        4            
e|--------|--------|--------|--------|--------|--------|--------|--------|
B|--------|--------|--------|--------|--------|--------|--------|--------|
G|--------|--------|--------|--------|--------|--------|--------|--------|
D|0-2-2-2-|2-2-2-2-|2-2-2-2-|2-2-2-2-|2-2-2-2-|2-2-2-2-|2-2-2-2-|2-2-2-2-|
A|--------|--------|--------|--------|--------|--------|--------|--------|
E|--------|--------|--------|--------|--------|--------|--------|--------|

 1        2        3        4        1        2        3        4            
e|--------|--------|--------|--------|--------|--------|--------|--------|
B|--------|--------|--------|--------|--------|--------|--------|--------|
G|--------|--------|--------|--------|--------|--------|--------|--------|
D|0-2-2-2-|2-2-2-2-|2-2-2-2-|2-2-2-2-|0-2-2-2-|2-2-2-2-|2-2-2-2-|2-2-2-2-|
A|--------|--------|--------|--------|--------|--------|--------|--------|
E|--------|--------|--------|--------|--------|--------|--------|--------|

 1        2        3        4        1        2        3        4            
e|--------|--------|--------|--------|--------|--------|--------|--------|
B|--------|--------|--------|--------|--2-3-2-|--------|--2-3-2-|0-2-3-2-|
G|--------|----0-2-|4-2-0-2-|4-2-0-2-|4-------|4-2-0-2-|4-------|--------|
D|2-4-2-0-|2-4-----|--------|--------|--------|--------|--------|--------|
A|--------|--------|--------|--------|--------|--------|--------|--------|
E|--------|--------|--------|--------|--------|--------|--------|--------|

 1        2        3        4        1        2        3        4            
e|--------|--------|--------|--------|--------|--------|--------|--------|
B|3-3-3-3-|5-3-3-3-|3-3-3-3-|5-3-3-3-|5-5-5-5-|8-5-0-5-|5-5-5-5-|8-5-0-5-|
G|--------|--------|--------|--------|--------|--------|--------|--------|
D|--------|--------|--------|--------|--------|--------|--------|--------|
A|--------|--------|--------|--------|--------|--------|--------|--------|
E|--------|--------|--------|--------|--------|--------|--------|--------|

 1        2        3        4        1        2        3        4            
e|--------|--------|--------|--------|--------|--------|--------|--------|
B|5-5-5-5-|8-5-0-5-|5-5-5-5-|8-5-0-5-|5-5-5-5-|8-5-0-5-|5-5-5-5-|8-5-0-5-|
G|--------|--------|--------|--------|--------|--------|--------|--------|
D|--------|--------|--------|--------|--------|--------|--------|--------|
A|--------|--------|--------|--------|--------|--------|--------|--------|
E|--------|--------|--------|--------|--------|--------|--------|--------|

 1            2            3            4            1           2            3           4
e|------------|------------|12-12-12-15-|12-10-12-12-|12-15-12-10|12-12-12-15-|12-10-12-12|10-12-15-12|
B|10-10-10-10-|13-10-10-13-|------------|------------|-----------|------------|-----------|-----------|
G|------------|------------|------------|------------|-----------|------------|-----------|-----------|
D|------------|------------|------------|------------|-----------|------------|-----------|-----------|
A|------------|------------|------------|------------|-----------|------------|-----------|-----------|
E|------------|------------|------------|------------|-----------|------------|-----------|-----------|

  
 1            2            3            4               1           
e|10-15-12-10-|15-12-10-15-|12-10-15-12-|10-12-15-15b17-|<- Hold this note for 2 measures, then this:
B|------------|------------|------------|---------------|
G|------------|------------|------------|---------------|
D|------------|------------|------------|---------------|
A|------------|------------|------------|---------------|
E|------------|------------|------------|---------------|


 1        2        3        4        1        2        3        4            
e|--------|--------|--------|--------|--------|--------|--------|------------|       
B|8-8-8-8-|8-8-8-8-|8-8-8-8-|8-8-8-8-|8-8-8-8-|7-7-7-7-|8-8-8-8-|10-10-10-10-|
G|9-9-9-9-|9-9-9-9-|9-9-9-9-|9-9-9-9-|9-9-9-9-|8-8-8-8-|9-9-9-9-|11-11-11-11-|
D|--------|--------|--------|--------|--------|--------|--------|------------|
A|--------|--------|--------|--------|--------|--------|--------|------------|
E|--------|--------|--------|--------|--------|--------|--------|------------|


 1        2            3            4            1            2            3            4     -      
e|--------|------------|------------|------------|------------|------------|------------|------------|
B|8-8-8-8-|10-10-10-10-|12-12-12-12-|17-17-17-17-|17-17-17-17-|17-17-17-17-|17-17-17-17-|17-17-17-17-|
G|9-9-9-9-|11-11-11-11-|12-12-12-12-|16-16-16-16-|16-16-16-16-|16-16-16-16-|16-16-16-16-|16-16-16-16-|
D|--------|------------|------------|------------|------------|------------|------------|------------|
A|--------|------------|------------|------------|------------|------------|------------|------------|
E|--------|------------|------------|------------|------------|------------|------------|------------|



   Let ring for 3 and 3/4 measures as dictated by the 2nd guitar part below (they're played together).
  
 1    2    3    4    1    2    3    4    1    2    3    4    1    2    3    4              
e|0---|----|----|----|----|----|----|----|----|----|----|----|----|----|----|12--|<-Hold for another 3
B|0---|----|----|----|----|----|----|----|----|----|----|----|----|----|----|12--|   measures
G|----|----|----|----|----|----|----|----|----|----|----|----|----|----|----|----|(there is a 3/4 bar)
D|----|----|----|----|----|----|----|----|----|----|----|----|----|----|----|----|
A|----|----|----|----|----|----|----|----|----|----|----|----|----|----|----|----|
E|----|----|----|----|----|----|----|----|----|----|----|----|----|----|----|----|


2nd guitar
 1    2    3    4    1    2    3    4    1    2    3    4    1    2    3    4          
e|----|----|----|----|----|----|----|----|----|----|----|----|----|----|----|----|
B|----|----|----|----|----|----|----|----|----|----|----|----|----|----|----|----|
G|----|----|----|----|----|----|----|----|----|----|----|----|----|----|----|----|
D|2-2-|2-2-|----|2---|2---|2-2-|2-2-|----|2---|----|----|2---|2---|2---|2---|2---|
A|2-2-|2-2-|----|2---|2---|2-2-|2-2-|----|2---|----|----|2---|2---|2---|2---|2---|
E|0-0-|0-0-|rest|0---|0---|0-0-|0-0-|rest|0---|rest|rest|0---|0---|0---|0---|0-0-|


Still 2nd guitar                            3/4 bar here        
 1    2    3    4    1    2    3    4    1    2    3       
e|----|----|----|----|----|----|----|----|----|----|----|
B|----|----|----|----|----|----|----|----|----|----|----|
G|----|----|----|----|----|----|----|----|----|----|----|
D|2-2-|----|2---|----|----|2---|2---|2---|2-2-|2-2-|----|
A|2-2-|----|2---|----|----|2---|2---|2---|2-2-|2-2-|----|
E|0-0-|rest|0---|rest|rest|0---|0---|0---|0-0-|0-0-|----|



e|-------10-------10------|     This next part  is mostly just improvisation within this chord,
B|-------10-------10------|      feel free to change it up.
G|o------9--------9------o|
D|-------9--------9-------|
A|o--7-777--777-777--77--o|
E|---0-000--000-000--00---|



e-|-------------------------------------------------------------------------|
B-|-o---------------------------------------------------------------------o-|
G-|----------------------7--7-7---5-5-5---------------------7-9-9-9-9-9-----|
D-|----------------------7--7-7---5-5-5---------------------7-9-9-9-9-9-----|
A-|-o--------------------5--5-5---3-3-3---------------------5-7-7-7-7-7---o-|
E-|----0-0-0-3-0-0-5-0-0------------------0-0-0-3-0-0-5-0-0-----------------|

e---0--x-0--x--0---0--0------0--x-0--x--0---0--0--------|
B---8--x-7--x--8---8--8------8--x-7--x--8---8--8--------|
G---9--x-9--x--9---9--9------9--x-9--x--9---9--9--------|
D---10-x-10-x-10---10-10-----10-x-10-x-10---10-10-------|
A---10---10---10---10-10-----10---10---10---10-10-------|
E-------------------------------------------------------|

e---7-7-7-7--7-7-7-7-7--7-7-7-7-7----7-7-7-7--7-7-7-7-7--7-7-7-7-7----|
B---8-8-8-8--8-8-8-8-8--8-8-8-7-7----8-8-8-8--8-8-8-8-8--8-8-8-7-7----|
G---9-9-9-9--9-9-9-9-9--9-9-9-9-9----9-9-9-9--9-9-9-9-9--9-9-9-9-9----|
D---------------------------------------------------------------------|
A---------------------------------------------------------------------|
E---------------------------------------------------------------------|



e-0--0--0---0-0-00------0--0--0---0-0-00----|
B-5--5--5---5-5-44------5--5--5---5-5-44----|
G-6--6--6---6-6-66------6--6--6---6-6-66----|
D-7--7--7---7-7-77------7--7--7---7-7-77----|
A-7--7--7---7-7-77------7--7--7---7-7-77----|
E-------------------------------------------|

e---7-7-7-7--7-7-7-7-7--7-7-7-7-7----7-7-7-7--7-7-7-7-7--7-7-7-7-7----|
B---8-8-8-8--8-8-8-8-8--8-8-8-7-7----8-8-8-8--8-8-8-8-8--8-8-8-7-7----|
G---9-9-9-9--9-9-9-9-9--9-9-9-9-9----9-9-9-9--9-9-9-9-9--9-9-9-9-9----|
D---------------------------------------------------------------------|
A---------------------------------------------------------------------|
E---------------------------------------------------------------------|

e---------------------------------|
B---------------------------------|
G---------------------------------|
D--2-2-2-2--2-2-2-2-2--2-2-2-2-2--|
A--2-2-2-2--2-2-2-2-2--2-2-2-2-2--|
E--0-0-0-0--0-0-0-0-0--0-0-0-0-0--|


e-7-7-7-7---9-7---0-0-0-0--0-0---0--0--0--0---0--0----0-0-0-0--0-----|
B-9-9-7-9---7-9---7-7-9-7--7-9---8--8--7--8---7--8----5-5-4-5--4-2~~-|
G-9-9-9-9---9-9---8-8-8-8--8-8---9--9--9--9---9--9----6-6-6-6--6-----|
D-----------------9-9-9-9--9-9---10-10-10-10--10-10---7-7-7-7--7-----|
A--------------------------------------------------------------------|
E--------------------------------------------------------------------|

Again, the second guitar part from above can be played behind this
(with a few changes).
e----------------------------------------------------------------|
B----------------------------------------------------------------|
G----------------4-4-4-4--4-4---5-5-5-5--5-5---------------------|
D-2-2-2-2--2-2---4-4-4-4--4-4---5-5-5-5--5-5----6-6-6-6-8-8-8-8--|
A-2-2-2-2--2-2---2-2-2-2--2-2---3-3-3-3--3-3----6-6-6-6-8-8-8-8--|
E-0-0-0-0--0-0----------------------------------4-4-4-4-6-6-6-6--|


e---------------------------------------------------------------|
B---------------------------------------------------------------|
G------------------4-4-4-4--4-4---5-5-5-5--5-5---2-2-2-2--2-2---|
D---2-2-2-2--2-2---4-4-4-4--4-4---5-5-5-5--5-5---2-2-2-2--2-2---|
A---2-2-2-2--2-2---2-2-2-2--2-2---3-3-3-3--3-3---0-0-0-0--0-0---|
E---0-0-0-0--0-0------------------------------------------------|

e----------------------------------------------------------------|
B----------------------------------------------------------------|
G----------------4-4-4-4--4-4---5-5-5-5--5-5---------------------|
D-2-2-2-2--2-2---4-4-4-4--4-4---5-5-5-5--5-5----6-6-6-6-8-8-8-8--|
A-2-2-2-2--2-2---2-2-2-2--2-2---3-3-3-3--3-3----6-6-6-6-8-8-8-8--|
E-0-0-0-0--0-0----------------------------------4-4-4-4-6-6-6-6--|


e-------------------------------------------------------------------------------|
B-------------------------------------------------------------------------------|
G----------------4-4-4-4--4-4---5-5-5-5--5-5---2-2-2-2--2-2---------------------|
D-2-2-2-2--2-2---4-4-4-4--4-4---5-5-5-5--5-5---2-2-2-2--2-2----2222--2-2-2-2222-|
A-2-2-2-2--2-2---2-2-2-2--2-2---3-3-3-3--3-3---0-0-0-0--0-0----2222--2-2-2-2222-|
E-0-0-0-0--0-0-------------------------------------------------0000--0-0-0-0000-|
Добавлено: 09.06.2013
Другие материалы по этой песне:

Страница создана 09.06.2013
http://primanota.ru/rush/headlong-flight-chords.htm
Привет, Гость.
Предлагаем пройти революционный курс по гитаре.
Подарок от PrimaNota.Ru, забирай!