PrimaNota.ru - самый крупный в мире бесплатный архив песенных текстов, аккордов, табулатур и нот


Rush - Force Ten - текст песни, таба, бас-таба, драм-таба, видео

Регистрация Запомнить меня
Войти через:  Facebook Google Twitter Vk Yandex Mail.ru

Rush - Force Ten - текст песни, таба, бас-таба, драм-таба, видео

Печатать
Просмотров: 194
Авторы музыки: Geddy Lee, Alex Lifeson
Авторы текста: Pye Dubois, Neil Peart
Song:Force Ten                 (this song reminds me of legend of zelda ocarina of time)
Artist:Rush
Album:Hold Your Fire
                                              



intro
[-----------------|-----------------]
[-----------------|-----------------]
[-2---------------|-----------------]
[-2---------------|-5---------------]
[-0---------------|-5---------------]
[-----------------|-3---------------]


figure1                              x3
[-----------------|-------------------]
[-----------------|*-----------------*]
[-----------------|-------------------]
[-----------------|-------------------]
[-0-0-3-0-0-0-0-0-|*-0-3-0-0-5-0-3-0-*]
[-----------------|-------------------]


figure2
[-----------------|-----------------|-----------------|-----------------|-----------------]
[-----------------|-----------------|-----------------|-----------------|-----------------]
[-2-2-------------|-----------------|-----------------|-----------------|-----2---2-4b7---]
[-2-2-------------|-----------------|-4-4-4-4-4-4-4-4-|-4-4-4-4-4-4-4-4-|-2h4---4---------]
[-0-0-------------|-----------------|-4-4-4-4-4-4-4-4-|-4-4-4-4-4-4-4-4-|-----------------]
[-----------------|-----------------|-2-2-2-2-2-2-2-2-|-2-2-2-2-2-2-2-2-|-----------------]



[-----------------]
[-----------------]
[r4---------------]
[-----------------]
[-----------------]
[-----------------]



[-----------------|-----------------|-----------------|-----------------|-----0-------0---]
[-----------------|-----------------|-----------------|-----------------|-----0-------0---]
[-2-2-2-2-2-2-2-2-|-2-2-2-2-2-2-2-2-|-----------------|-----------------|-----1-------1---]
[-2-2-2-2-2-2-2-2-|-2-2-2-2-2-2-2-2-|---2-------------|-----------------|-----2-------2---]
[-0-0-0-0-0-0-0-0-|-0-0-0-0-0-0-0-0-|-4---4-4-4-4-----|-----------------|-----2-------2---]
[-----------------|-----------------|-------2-2-2-----|-----------------|-0-0-0-0-0-0-0-0-]



[-19-16-----------|-----------------|-------------------|-----------------]
[-------17--------|-----------------|-------------------|-----------------]
[----------16-----|-----------------|----12-------------|-----------------]
[-----------------|-----------------|-12----12----------|-----------------]
[-----------------|-----------------|----------12-9-9-7-|-----------------]
[-----------------|-----------------|-------------------|-----------------]



[-------------------------|-------------------------|-----------------|-----------------]
[-------------------------|-------------------------|-------7-----6---|-----------------]
[-11-11-11-11-11-11-11-11-|-11-11-11-11-11-11-11-11-|-----------------|---8-------------]
[-11-11-11-11-11-11-11-11-|-11-11-11-11-11-11-11-11-|-----------------|---------8-------]
[-9--9--9--9--9--9--9--9--|-9--9--9--9--9--9--9--9--|-6---------------|---------------6-]
[-------------------------|-------------------------|-----------------|-----------------]



[-----------------|-----------------]
[-------4---------|---6-----4-------]
[-------------6---|---------------6-]
[-----------------|-----------------]
[-4---------------|-----------------]
[-----------------|-----------------]



[-------------------------|-------------------------|-----------------|---6-------------]
[-------------------------|-------------------------|-------7---------|---------7-------]
[-11-11-11-11-11-11-11-11-|-11-11-11-11-11-11-11-11-|-------------8---|---------------8-]
[-11-11-11-11-11-11-11-11-|-11-11-11-11-11-11-11-11-|-----------------|-----------------]
[-9--9--9--9--9--9--9--9--|-9--9--9--9--9--9--9--9--|-6---------------|-----------------]
[-------------------------|-------------------------|-----------------|-----------------]


                                                         wbd
[-----------------|-----------------|-----------------|---7^----------]
[-------4---------|---------4-------|-------2---------|---7^----------]
[-------------6---|---------------6-|-------------4---|---------2-2-2-]
[-----------------|---6-------------|-----------------|---------2-2-2-]
[-4---------------|-----------------|-2---------------|---------0-0-0-]
[-----------------|-----------------|-----------------|---------------]

       Am                Am                      G     
figure3                  guitar tacet
 [-----------------------|-----------------------|-----------------------|
6[-----------------------|-----------------------|-----------------------|
_[-2---------------------|-----------------------|-----------------------|
4[-2---------------------|-----------------------|-----------------------|
 [-0---------------------|-----------------------|-----------------------|
 [-----------------------|-----------------------|-----------------------|


Am                      G                       F
[-----------------------|-----------------------|-----------------------|
[-----------------------|-----------------------|-----------------------|
[-----------------------|-----------------------|-----------------------|
[-----------------------|-----------------------|-----------------------|
[-----------------------|-----------------------|-----------------------|
[-----------------------|-----------------------|-----------------------|


G                       Am                      G
[-----------------------|-----------------------|-----------------------|
[-----------------------|-----------------------|-----------------------|
[-----------------------|-----------------------|-----------------------|
[-----------------------|-----------------------|-----------------------|
[-----------------------|-----------------------|-----------------------|
[-----------------------|-----------------------|-----------------------|


figure4
 [-----------------|-----------------|-----------------|-----------------|-----0-------0---]
4[-----------------|-----------------|-----------------|-----------------|-----0-------0---]
_[-2-2-------------|-----------------|-----------------|-----------------|-----1-------1---]
4[-2-2-------------|-----------------|-4-4-4-4-4-4-4-4-|-4-4-4-4-4-4-4-4-|-----2-------2---]
 [-0-0-------------|-----------------|-4-4-4-4-4-4-4-4-|-4-4-4-4-4-4-4-4-|-----2-------2---]
 [-----------------|-----------------|-2-2-2-2-2-2-2-2-|-2-2-2-2-2-2-2-2-|-0-0-0-0-0-0-0-0-]



[-----0-----0-----]
[-----0-----0-----]
[-2p1---2p1---2p1-]
[-----------------]
[-----------------]
[-----------------]



[-----------------|-----------------|-----------------|-----------------|-----------------]
[-----------------|-----------------|-----------------|-----------------|-----------------]
[-2-2-2-2-2-2-2-2-|-2-2-2-2-2-2-2-2-|-----------------|-----------------|-----------------]
[-2-2-2-2-2-2-2-2-|-2-2-2-2-2-2-2-2-|-4-4-4-4-4-4-4-4-|-4-----2-----4---|-2-2-2-2-2-2-2-2-]
[-0-0-0-0-0-0-0-0-|-0-0-0-0-0-0-0-0-|-4-4-4-4-4-4-4-4-|-----4-----4---4-|-2-2-2-2-2-2-2-2-]
[-----------------|-----------------|-2-2-2-2-2-2-2-2-|-----------------|-0-0-0-0-0-0-0-0-]


                                              wbv------|
[-----------------|--------------------|----------------]
[-----------------|--------------------|----------------]
[-----------------|--------------------|----------------]
[-2-2-2-2-2-2-2-2-|-5^-----5^-----5^---|---5^-5^--------]
[-2-2-2-2-2-2-2-2-|--------------------|----------------]
[-0-0-0-0-0-0-0-0-|--------------------|----------------]



[-------------------------|-------------------------|-----------------|-----------------]
[-------------------------|-------------------------|-----------------|-----------------]
[-11-11-11-11-11-11-11-11-|-11-11-11-11-11-11-11-11-|-8-8-8-8-8-8-8-8-|-8-8-8-8-8-8-8-8-]
[-11-11-11-11-11-11-11-11-|-11-11-11-11-11-11-11-11-|-8-8-8-8-8-8-8-8-|-8-8-8-8-8-8-8-8-]
[-9--9--9--9--9--9--9--9--|-9--9--9--9--9--9--9--9--|-6-6-6-6-6-6-6-6-|-6-6-6-6-6-6-6-6-]
[-------------------------|-------------------------|-----------------|-----------------]



[-----------------|-----------------]
[-----------------|-----------------]
[-----6-------6---|-----6-------6---]
[-----6-------6---|-----6-------6---]
[-----4-------4---|-----4-------4---]
[-----------------|-----------------]



[-------------------------|-------------------------|-----------------|-----------------]
[-------------------------|-------------------------|-----------------|-----------------]
[-11-11-11-11-11-11-11-11-|-11-11-11-11-11-11-11-11-|-8-8-8-8-8-8-8-8-|-8-8-8-8-8-8-8-8-]
[-11-11-11-11-11-11-11-11-|-11-11-11-11-11-11-11-11-|-8-8-8-8-8-8-8-8-|-8-8-8-8-8-8-8-8-]
[-9--9--9--9--9--9--9--9--|-9--9--9--9--9--9--9--9--|-6-6-6-6-6-6-6-6-|-6-6-6-6-6-6-6-6-]
[-------------------------|-------------------------|-----------------|-----------------]


                                                       wbd
[-----------------|-----------------|-----------------|-7---------------]
[-6-----7-----9---|-----------------|-7-----6-----7---|-7---------------]
[-----------------|-----------------|-----------------|-----------------]
[-----------------|-----------------|-----------------|-----------2-2-2-]
[-----------------|-----------------|-----------------|-----------0-0-0-]
[-----------------|-----------------|-----------------|-----------------]

figure5
electric guitar
[-----------------|-----------------|-----------------|--------8p5h8p5---]
[-----------------|-----------------|-----------------|----------------6-]
[-----------------|-----------------|-----------------|------------------]
[-----------------|-----------------|-----------------|------------------]
[-----------------|-----------------|-----------------|------------------]
[-----------------|-----------------|-----------------|------------------]
|                                                                        |
|                                                                        |
|acoustic guitar                                                         |
[-----3-----------|-----------------|-----------------|------------------]
[-----1-----------|-----------------|-----------------|------------------]
[-----2-----------|-----------------|-----------------|------------------]
[-----2-----------|-----------------|-----------------|------------------]
[-----0-----------|-----------------|-----------------|------------------]
[-----------------|-----------------|-----------------|------------------]



[-----------------|-----------------|-----------------|------------------]
[b8---------------|-----------------|-----------------|------------------]
[-----------------|-----------------|-----------------|------------------]
[-----------------|-----------------|-----------------|--------5bì-------]
[-----------------|-----------------|-----------------|------------------]
[-----------------|-----------------|-----------------|------------------]
|                                                                        |
|                                                                        |
|                                                                        |
[-----3-----------|-----------------|-----------------|------------------]
[-----1-----------|-----------------|-----------------|------------------]
[-----2-----------|-----------------|-----------------|------------------]
[-----2-----------|-----------------|-----------------|------------------]
[-----0-----------|-----------------|-----------------|------------------]
[-----------------|-----------------|-----------------|------------------]



[-----------------|-----------------|-----------------|------------------]
[-----------------|-----------------|-----------------|--------------8b10]
[-----------------|-----------------|-----------------|------------------]
[-----------------|-----------------|-----------------|------------------]
[-----------------|-----------------|-----------------|------------------]
[-----------------|-----------------|-----------------|------------------]
|                                                                        |
|                                                                        |
|                                                                        |
[-----3-----------|-----------------|-----------------|------------------]
[-----1-----------|-----------------|-----------------|------------------]
[-----2-----------|-----------------|-----------------|------------------]
[-----2-----------|-----------------|-----------------|------------------]
[-----0-----------|-----------------|-----------------|------------------]
[-----------------|-----------------|-----------------|------------------]



[-----------------|-----------------|-----------------|------------------]
[-8---------------|-----------------|-----------------|------------------]
[-----------------|-----------------|-----------------|------------------]
[-----------------|-----------------|-----------------|------------------]
[-----------------|-----------------|-----------------|------------------]
[-----------------|-----------------|-----------------|------------------]
|                                                                        |
|                                                                        |
|                                                                        |
[-----3-----------|-----------------|-----------------|------------------]
[-----1-----------|-----------------|-----------------|------------------]
[-----2-----------|-----------------|-----------------|------------------]
[-----2-----------|-----------------|-----------------|------------------]
[-----0-----------|-----------------|-----------------|------------------]
[-----------------|-----------------|-----------------|------------------]


figure6
[-----------------|-----------------|-----------------|-----------------]
[-----------------|-----------------|-----------------|-----------------]
[---------2-------|-----------------|---------2-------|-----------------]
[---------2-------|---------5-------|---------2-------|---------5-------]
[---------0-------|---------5-------|---------0-------|---------5-------]
[-----------------|---------3-------|-----------------|---------3-------]



[-----------------|-----------------|-----------------|-----------------]
[-----------------|-----------------|-----------------|-----------------]
[-----------------|-----------------|---------2-------|-----------------]
[---------3-------|---------5-------|---------2-------|---------5-------]
[---------3-------|---------5-------|---------0-------|---------5-------]
[---------1-------|---------3-------|-----------------|---------3-------]

  figure7
  Am                      G                       F
  [-----------------------|-----------------------|-----------------------]
12[-----------------------|-----------------------|-----------------------]
__[-2---------------------|-----------------------|-----------------------]
 8[-2---------------------|-----------------------|-----------------------]
  [-0---------------------|-----------------------|-----------------------]
  [-----------------------|-----------------------|-----------------------]


G                       Am                      G
[-----------------------|-----------------------|-----------------------]
[-----------------------|-----------------------|-----------------------]
[-----------------------|-----------------------|-----------------------]
[-----------------------|-----------------------|-----------------------]
[-----------------------|-----------------------|-----------------------]
[-----------------------|-----------------------|-----------------------]



sequence:
intro
four measure rest(bass line)
figure1 x3
figure2
figure3
figure1 x2
figure4
figure3
figure5
figure6
figure1 x1
figure3
figure7
figure1 x3

legend:
h=hammer on
p=pull off
wbd=wammy bar dive
wbv=wammy bar vibrato
b=bend
bì=bend infinity (warning be careful not to break the string)
4 6 12
_ _ __=time signatures
4,4, 8
^=harmonics
Добавлено: 20.04.2012
Другие материалы по этой песне:

Страница создана 20.04.2012
http://primanota.ru/rush/force-ten-chords.htm
Привет, Гость.
Предлагаем пройти революционный курс по гитаре.
Подарок от PrimaNota.Ru, забирай!