PrimaNota.ru - самый крупный в мире бесплатный архив песенных текстов, аккордов, табулатур и нот


Rush - 2112 Vii Grand Finale - драм-таба, видео

Регистрация Запомнить меня
Войти через:  Facebook Google Twitter Vk Yandex Mail.ru

Rush - 2112 Vii Grand Finale - драм-таба, видео

Печатать
Просмотров: 59
Авторы музыки: Geddy Lee, Alex Lifeson
Авторы текста: Neil Peart
NOT MY TAB. I just thought it would be good to have these here on UG. Credit goes to those below.



Rush: Grand Finale
From the album 2112 (Mercury Records)
Copyright 1976 Core Music Publishing
Music by Lee and Lifeson
Lyrics by Peart

Comments/corrections to Bryan McDonald 

Transcribed by Bill Wheeler and Bryan McDonald


q = 150

      Guitar plays 4 measures            q       s s s s s s s s s s s s
H|-----------------------------------|---C-------H-H-H-H---H-H-H-H-H-H-H-|
S|-----------------------------------|-------------------X---------------|
T|-----------------------------------|-----------------------------------|
F|-----------------------------------|---X---------------------------X---|

     s s s s s s s s s s s s s s s s     s s s s s s s s s s s s s s s s
H|---H-H-H-H-H-H-H-H---H-H-H-H-H-H-H-|---H-H-H-H-----H-H-H-H-----H-H-H-H-|
S|-------------------X---------------|-----------X-X---------X-X---------|
T|-----------------------------------|-----------------------------------|
F|---X-------X---X-------X-------X---|---X-----------X---X-------X---X---|

     s s s s s s s s e   s s s s s s     e   e   q       e   e   q
H|-------H-H-H-H-----H---------------|---C-------H-------H-------H-------|
S|---X-X---------X-X-----X-X-X-X-X-X-|-----------X---------------X-------|
T|-----------------------------------|-----------------------------------|
F|-------X---X-------X---X-----------|---X---X---------------X-----------|

     e   e   e   e   e   e   q           e   e   q       e   e   q
H|---H-------H-------H-------H-------|---H-------H-------H-------H-------|
S|-----------X---------------X-------|-----------X---------------X-------|
T|-----------------------------------|-----------------------------------|
F|---X---X-------X-------X-----------|---X---X---------------X-----------|

     e   e   e   e   e   e   e   s s     e   e   q       e   e   q
H|---C-------H-------H-------H-------|---C-------H-------H-------H-------|
S|-----------X---------------X---X-X-|-----------X---------------X-------|
T|-----------------------------------|-----------------------------------|
F|---X---X-------X-------X-----------|---X---X---------------X-----------|

     e   e   e   e   e   e   s s s s      e   e   q       e   e   q
H|---H-------H-------H---------------||---H-------H-------H-------H-------|
S|-----------X---------------X-X-----||o----------X---------------X-------|
T|-------------------------------6-6-||o----------------------------------|
F|---X---X-------X-------X-----------||---X---X---------------X-----------|

     e   e   e   e   e   e   q            e   e   q       e   e   q
H|---H-------H-------H-------H-------||---C-------C-------H-------H-------|
S|-----------X---------------X------o||-----------X---------------X-------|
T|----------------------------------o||-----------------------------------|
F|---X---X-------X-------X-----------||---X---X---------------X-----------|

     e   e   e   e   e   e   e   e       e   e   q       e   e   q
H|---H-------H-------H-------H-------|---C-------H-------H-------H-------|
S|-----------X-------X-------X---X---|-----------X---------------X-------|
T|-----------------------------------|-----------------------------------|
F|---X---X-------X-------X-----------|---X---X---------------X-----------|

     e   e   e   e   e   e   e   e       e   e+  e   e   e   e   e   e
H|---H-------H-------H-------H-------|---H---O-----------O-------O-------|
S|-----------X---------------X---H---|-------X-----------X-------X---X---|
T|-----------------------------------|-----------------------------------|
F|---X---X-------X-------X-----------|---X-------P---X-------X-------P---|

     e   e   q       e   e   q           e   e   e   e   e   e   q
H|---C-------H-------H-------H-------|---H-------H-------H-------H-------|
S|-----------X---------------X-------|-----------X-------X-------X-------|
T|-----------------------------------|-----------------------------------|
F|---X---X---------------X-----------|---X---X-------X-------X-----------|

     q       s s s s q       s s s s     q       e   e   e   e   e   e
H|---C---------------C---------------|---C-------------------------------|
S|-----------X-X-X-X---------X-X-X-X-|---------------F-------F-------F---|
T|-----------------------------------|-----------------------------------|
F|---X---------------X---------------|---X-------P-------P-------P-------|

e = 240

     Q          Q
H|--------------r----------|-------------|
S|---F----------e----------|------%------|
T|--------------s----------|-------------|
F|---X----------t----------|-------------|

      e   e   s s e   s s s s     e   e   e   e   e   e
H||---H---H---H---H---H---H---|---H---H---H---H---H---H---|
S||o--------------X-----X-----|---X-------X-------X-------|
T||o--------------------------|---------------------------|
F||---X---------X-----------X-|-------X-------X-------X---|

 ________________________________________________________
 | 1.>   > >   >                 >   > >   >
 |   s s s s s s s s e   e       s s s s s s s s e   e
H|-------------------C-------|-------------------C-------||
S|---X-X-X-X-X-X-X-X-----X---|---X-X-X-X-X---X-X-----X--o||
T|---------------------------|-------------5------------o||
F|---X---X---X---X---X-------|-------------------X-------||

 ________________________________________________________
 | 2.
 |   e   s s s s s s e   e       e   s s s s s s e   e
H|-------------------C-------|-------------------C-------||
S|-------X---------X-----X---|-------X---------X-----X--o||
T|--x6-----5---5-6-----------|---6-----6---5-6----------o||
F|---X---X---X---X---X-------|---X---X---X---X---X-------||

 ____________________________________________
 | 3.
 |   tttttttttttte   e   e+
H|---------------O-------C---|---------------||
S|---------------X-------X---|-------%------o||
T|---X5--X5--X5--------------|--------------o||
F|-----XX--XX--XX----X-------|---------------||
       RL  RL  RL

 _______________________________________________________
 | 4.
 |   e   s s s s e   s e   s     e   s s s s e   s s s s
H|-----------r---------------|-----------r---------------|
S|---F-------e---------------|-----------e---F---X-X-X-X-|
T|---------6-s---6-----6-----|--x6-----6-s---------------|
F|-------X---t-X-----X-----X-|-------X---t-X-----X---X---|

     e   e   s s e   e   s s     e   e   e   e   e   s s
H|---C---H---H---H---H---H---|---H---H---H---H---H-------|
S|---------------X-----------|---X-------X-------X-------|
T|---------------------------|-----------------------7-7-|
F|---X---------X-----------X-|-------X-------X-----------|

     e   e   s s e   e   e       e   s s s s e   e   e
H|---C---H---H---H---H---H---|---C---H---H---H---H-------|
S|---------------X-----------|---------X-----X-------X---|
T|---------------------------|---------------------------|
F|---X---------X-----X---X---|---X---------X-----X-------|

     e   e   s s e   s s s s     e   e   e   e   e   e
H|---C---H---H---H---H---H---|---C---C---C---C---C---C---|
S|---------------X-----X-----|---------------------------|
T|---------------------------|---------------------------|
F|---X---------X-----X---X-X-|---X---X---X---X---X---X---|

     e   e   s s e   e   e       e   s s s s e   e   e
H|---C---H---H---H---H---H---|---H---H---H---H---H---H---|
S|---------------X-------X---|---------X-----X-------X---|
T|---------------------------|---------------------------|
F|---X---------X-----X-------|---X---------X-----X-------|

     e   s s s s e   s e   s     e   e   e   s s s s s s
H|-----------r---------------|---C---C---C---C---C---C---|
S|---F-----X-e---X-----X-----|---X-----------X---X---X---|
T|-----------s---------------|---------------------------|
F|-------7---t-X-----X-----X-|-------X---X-----X---X---X-|

     e   e   s s e   e   e       e   s s s s e   e   e
H|---C---H---H---H---H---H---|---H---H---H---H---C---C---|
S|---X-----------X-------X---|---------X-----X-----------|
T|---------------------------|---------------------------|
F|-------------X-----X-------|---X---------X-----X---X---|

     e   s s s s e   s s e       e   s s s s e   s s s s
H|---C---H-------C-------C---|---C-----------C-----------|
S|---------X-X-X-----X-X-----|-------X-X-X-X-----X-------|
T|---------------------------|---------------------5-----|
F|---X-----------X-------X---|---X-----------X-------6-6-|

     e   s s s s e   tttttttt     e   s s s s e   e   e
H|---C-----------C------------|---C-----------C---C---C---|
S|-------X-X-X-X--------------|---X---X-X-X-X-------------|
T|-------------------X6--X6---|---------------------------|
F|---X-----------X-----XX--XX-|-----------X---X---X---X---|

     e   s s s s tttttttttttt     e   s s e   e   e   e
H|---C------------------------|---C-------------------C---|
S|-------X-X------------------|---X---X-X---------X-------|
T|-----------6-6-76--76--76---|---------------------------|
F|---X-------------XX--XX--XX-|-----------P---X---X---X---|
                   RL  RL  RL

     e   s s s s tttttttte       e   s s s s e   e   e
H|---C-------------------C---|---C-----------C---C---C---|
S|-------X-X-------------X---|-------X-X-X-X-------------|
T|-----------6-6-76--76------|---------------------------|
F|---X-------------XX--XX----|---X-----------X---X---X---|
                   RL  RL

     e   e   e   e   e   e       e   e   e   s s s s s s
H|---C---C---C---C---C---C---|---C---C---C---------------|
S|---------------------------|---------------X-X---X---X-|
T|---------------------------|---------------------------|
F|---X---X---X---X---X---X---|---X---X---X---X---X---X---|

     s s s s s s s s s s s s     s s s s s s s s s s s s
H|---------------------------|---------------------------|
S|---X-X---X---X-X-X---X---X-|---X-X---X---X-X-X---X---X-|
T|---------------------------|---------------------------|
F|---X---X---X---X---X---X---|---X---X---X---X---X---X---|


     s s s s s s s s s s s s     s s e   e   e   e   e
H|---------------------------|-------C---C---C---C---C---|
S|---X-X---X---X-X-X---X---X-|---X-X---------------------|
T|---------------------------|---------------------------|
F|---X---X---X---X---X---X---|---X---X---X---X---X---X---|

     e   e   e   e   e   e+      e   q       q       e+
H|---C---C---C---C---C---C---|-------C-------C-------C---|
S|---------------------------|---------------------------|
T|---------------------------|---------------------------|
F|---X---X---X---X---X---X---|-------X-------X-------X---|

     e   q       q       e+
H|-------C-------C-------C---|
S|---------------------------|
T|---------------------------|
F|-------X-------X-------X---|


                               (Fermata)
H|---------------------------|---------------------------|
S|-----AD---LIB--------------|---------------------------|
T|---------------------------|---------------------------|
F|---------------------------|---------------------------|

__________________________________________________________________________

KEY:

 Hi-hats & Cymbals  -O-X-H--C-R-B-S-T-c-
             Snare  -X-S-R-F------------
               Tom  -1-2-3-4-5-6-X------
       Foot Pedals  -X-P----------------


Hi-hats & Cymbal line:

Hi-hats  O - OPEN HH
         X - CLOSED HH
         P - PEDAL HH
         H - HALF OPEN HH
Cymbals  C - CRASH
         c - CRASH CHOKE
         R - RIDE
         B - RIDE BELL
         S - SPLASH
         T - CHINA (AKA TRASH)

Snare line:
     X - SINGLE HIT
     R - RIMSHOT
     F - FLAM (Hit with both sticks, one slightly before the other)
     S - SIDE STICK
     x - GRACE NOTE (hit snare slightly and right before the prime note)

Tom line:
        Notated by number. 1 being the highest sounding to the lowest tom.
        (The numbers depend on how many toms Neil is using in any given song,
        it's up to you to fit them in your drumset.)
        X - Floor tom
 NOTE - Originally this key had two tom lines, but I decided to use
        just one too keep it simpler.
        A second tom line will be added to the bar ONLY if two toms are
        played at once.
 Foot Pedal line:
        X - KICK DRUM
        P - Hi-hat pedal
        When the right and left kick drums are being used together they will
        be notated with a right (R) or a left (L)

Rhythm:
w whole note                    W dotted whole note
h half note                     H dotted half note
q quarter note                  Q dotted quarter note
e eighth note                   E dotted eighth note
s sixteenth note                S dotted sixteenth note
t thirty-second note            T dotted thirty-second note

% Repeat last measure

Fermata - Hold the note at pleasure

> - Accent: When a note is given special emphasis

||----||
||o--o||  Repeat
||o--o||  Signs
||----||
Добавлено: 28.07.2013
Другие материалы по этой песне:

Страница создана 28.07.2013
http://primanota.ru/rush/2112-vii-grand-finale-chords.htm
Привет, Гость.
Предлагаем пройти революционный курс по гитаре.
Подарок от PrimaNota.Ru, забирай!