PrimaNota.ru - самый крупный в мире бесплатный архив песенных текстов, аккордов, табулатур и нот


Rush - 2112 (ii) Temples Of Syrinx - таба, драм-таба, видео

Регистрация Запомнить меня
Войти через:  Facebook Google Twitter Vk Yandex Mail.ru

Rush - 2112 (ii) Temples Of Syrinx - таба, драм-таба, видео

Печатать
Просмотров: 68
As recorded by Rush
               (From the 1976 Album 2112 (MERCURY 314 534 626-2))

Words by PeartMusic by Lee and Lifeson
Arranged by Rush
Transcribed by Richard J. Soto   hrhkinglerxst@comcast.net
Thanks to Charles D. Bruce for his suggestion regarding the Am strum(s).
Last Updated: 2003-01-24

Gtr I (E A D G B E) - 'Electric Distorted Guitar 1'
Gtr II (E A D G B E) - 'Electric Distorted Guitar 2'
Gtr III (E A D G B E) - 'Electric Overdriven Guitar'
Gtr IV (E A D G B E) - 'Classical Acoustic Guitar'

 Intro
  Q=128
            E5    Am     E5Am     C5  G    C5G D5 E5
 4/4
  Gtrs I, II, III
  H    Q.   E     E. S E E E. S E E   Q  E E E Q  E
|-------------||--------------------|----------------|
|-------------||o-1--1-1---1--1-1---|----------------|
|-------------||--2--2-2---2--2-2-5-|-4--4-5-4-7-----|
|-----------2-||--2--2-2-2-2--2-2-5-|-5--5-5-5-7--2--|
|-----------2-||o-0--0-0-2-0--0-0-3-|-5--5-3-5-5--2--|
|-----------0-||---------0----------|-3--3---3----0--|


  Am     E5Am     C5  G          E5
  E. S E E E. S E E   E +H.      E
|-------------------|---------------||
|-1--1-1---1--1-1---|--------------o||
|-2--2-2---2--2-2-5-|-4-(4)---------||
|-2--2-2-2-2--2-2-5-|-5-(5)------2--||
|-0--0-0-2-0--0-0-3-|-5-(5)------2-o||
|--------0----------|-3-(3)------0--||


 Verse
  $
  Am     E5Am     C5    G    C5  G D5     E5
  E. S E E E. S E S S   Q  E S S E E +E   E
|---------------------|---------------------|
|-1--1-1---1--1-1-----|---------------------|
|-2--2-2---2--2-2-5-5-|-4--4-5-5-4-7-(7)\---|
|-2--2-2-2-2--2-2-5-5-|-5--5-5-5-5-7-(7)\-2-|
|-0--0-0-2-0--0-0-3-3-|-5--5-3-3-5-5-(5)\-2-|
|--------0------------|-3--3-----3--------0-|


  Am     E5Am     C5  G          E5
  E. S E E E. S E E   E +H.      E
|-------------------|--------------|
|-1--1-1---1--1-1---|--------------|
|-2--2-2---2--2-2-5-|-4-(4)--------|
|-2--2-2-2-2--2-2-5-|-5-(5)------2-|
|-0--0-0-2-0--0-0-3-|-5-(5)------2-|
|--------0----------|-3-(3)------0-|


  Am     E5Am   C5  G    C5G D5       E5
  E. S E E Q  E E   Q  E E E E. +T  T E
|-----------------|---------------------|
|-1--1-1---1--1---|---------------------|
|-2--2-2---2--2-5-|-4--4-5-4-7--(7)-----|
|-2--2-2-2-2--2-5-|-5--5-5-5-7--(7)---2-|
|-0--0-0-2-0--0-3-|-5--5-3-5-5--(5)---2-|
|--------0--------|-3--3---3----------0-|


  Am     E5Am     C5  G             F#sus4
  E. S E E E. S E E   E E E E E E E E
|-------------------|-----------------||
|-1--1-1---1--1-1---|-----------------||
|-2--2-2---2--2-2-5-|-4-------------4-||
|-2--2-2-2-2--2-2-5-|-5-------------4-||
|-0--0-0-2-0--0-0-3-|-5-------------2-||
|--------0----------|-3-0-2-3-5-3-0-2-||


   Chorus
    Q=132
    F#sus4        G                 A
    +Q   E Q  E E E   +Q   E Q  E E E
||-------2----2-----|------3----3-----|
||o------2----2-----|------3----3-----|
||--(4)-----------4-|-(4)-----------6-|
||--(4)-----------5-|-(5)-----------7-|
||o-(2)-----------5-|-(5)-----------7-|
||--(2)-----------3-|-(3)-----------5-|


                   1Q=1403.                 4Q=140
  A             B5                   F#sus4  B5             D5
  +Q   E Q  E E E   +E   E E E E E E E  4x    E   E E E E E E E
|------5----5-----|---------------------||-|--------------------|
|------5----5-----|--------------------o||-|--------------------|
|-(6)-------------|------------------4--||-|----------------7---|
|-(7)-------------|------------------4--||-|----------------7---|
|-(7)-----------9-|-(9)\-------------2-o||-|-(9)\-----------5---|
|-(5)-----------7-|-(7)\-0-2-3-5-3-0-2--||-|-(7)\-0-2-3-5-3-----|


   Breakdown
    Q=132                1.
    B               D5    B               G
    S S S E E S E E E E   S S S E E S E E E E
||----------------------|----------------------||
||o---------------------|---------------------o||
||--8-8-8-8-8-8-8---7---|-8-8-8-8-8-8-8---4----||
||--9-9-9-9-9-9-9---7---|-9-9-9-9-9-9-9---5----||
||o-9-9-9-9-9-9-9---5---|-9-9-9-9-9-9-9---5---o||
||--7-7-7-7-7-7-7-------|-7-7-7-7-7-7-7---3----||


  2.                                              Q=82
         To Coda                 D.S. al Coda     &
  B                 G          G5            E5   G
 3/4               4/4
                                                  >
  S S S E E S E E   W          E E E E E E E E    W
|-----------------|----------|-----------------||------|
|-----------------|----------|-----------------||------|
|-8-8-8-8-8-8-8---|-4--------|-----------------||-4----|
|-9-9-9-9-9-9-9---|-5--------|-------5-5-5-5-2-||-5----|
|-9-9-9-9-9-9-9---|-5--------|---5-5-5-5-5-5-2-||-5----|
|-7-7-7-7-7-7-7---|-3--------|-3-3-3-3-3-3-3-0-||-3----|


 Outro
  Q=78  H.=H                Q=44
  G              F#         Bm
  +H              H          W
|-------------------------|-------*|
|-------------------------|-------*|
|-(4)---------------------|-------*|
|-(5)---------------------|-------*|
|-(5)---------------------|-------*|
|-(3)---------------------|-------*|
|
| Gtr IV
|  E  E E  S   S  E E E e    W
|-^3--------------2-------|-------*|
|-----3----3--------2---2-|-^3----*|
|-------4-----\x------3---|-^4----*|
|-------------\x----------|-^4----*|
|-^5------(5)-\x-\x-------|-^2----*|
|-------------------------|-------*|
   Q.     +S   S  H


Duration Legend
---------------
W - whole; H - half; Q - quarter; E - 8th; S - 16th; T - 32nd; X - 64th; a - acciaccatura
+ - note tied to previous; . - note dotted; .. - note double dotted
Uncapitalized letters represent notes that are staccato (1/2 duration)
Irregular groupings are notated above the duration line
Duration letters will always appear directly above the note/fret number it represents the
duration for.  Duration letters with no fret number below them represent rests.  Multi-
bar rests are notated in the form Wxn, where n is the number of bars to rest for.  Low
melody durations appear below the staff

Tablature Legend
----------------
 h   - hammer-on
 p   - pull-off
 b   - bend
 pb  - pre-bend
 r   - bend release (if no number after the r, then release immediately)
 /\  - slide into or out of (from/to "nowhere")
 s   - legato slide
 S   - shift slide
  - natural harmonic
[n]  - artificial harmonic
n(n) - tapped harmonic
 ~   - vibrato
 tr  - trill
 T   - tap
 TP  - trem. picking
 PM  - palm muting
\n/  - tremolo bar dip; n = amount to dip
 \n  - tremolo bar down
 n/  - tremolo bar up
/n\  - tremolo bar inverted dip
 =   - hold bend; also acts as connecting device for hammers/pulls
 <>  - volume swell (louder/softer)
 x   - on rhythm slash represents muted slash
 o   - on rhythm slash represents single note slash

Misc Legend
-----------
 |  - bar
||  - double bar
||o - repeat start
o|| - repeat end
*|  - double bar (ending)
 :  - bar (freetime)
 $  - Segno
 &  - Coda
Tempo markers -  = BPM(8/16=s8/s16), where s8 = swing 8ths, s16 = swing 16ths

Lyrics: 

We've taken care of everything
The words you read, the songs you sing
The pictures that give pleasure to your eye
It's one for all and all for one
We work together common son
Never need to wonder how or why

We are the priests, of The Temples of Syrinx
Our great computers, fill the hallowed halls
We are the priests, of The Temples of Syrinx
All the gifts of life, are held within our walls

Look around this world we've made
Equality our stock in trade
Come and join the Brotherhood of Man
Oh what a nice contented world
Let the banners be unfurled
Hold the Red Star proudly high in hand

Добавлено: 29.07.2013
Другие материалы по этой песне:

Страница создана 26.04.2012
http://primanota.ru/rush/2112-ii-temples-of-syrinx-chords.htm
Привет, Гость.
Предлагаем пройти революционный курс по гитаре.
Подарок от PrimaNota.Ru, забирай!