PrimaNota.ru - самый крупный в мире бесплатный архив песенных текстов, аккордов, табулатур и нот


Ruphus - Coloured Dreams - таба, видео

Регистрация Запомнить меня
Войти через:  Facebook Google Twitter Vk Yandex Mail.ru

Ruphus - Coloured Dreams - таба, видео

Печатать
Просмотров: 92
-------------------------------------------------------------------------------
                             SONG NAME - Band Name
-------------------------------------------------------------------------------
Tabbed by: Andreas Siem
E-mail:

Tuning: Standard

INTRO: x4
e|---------------------------------------------------------------------------|
B|---------------------------------------------------------------------------|
G|-------5-------------------------------------------------------------------|
D|--------------------------------------------1-h3-1-------------------------|
A|-3--3--------------5--------------1---1--3----------3----------------------|
E|------------3-3-3----6--1---1-1-3------------------------------------------|

Verse:
e|---------------------------------------------------------------------------|
B|---------------------------------------------------------------------------|
G|--5------------8------10---------------------------------------------------|
D|--5------5-----8------10---------------------------------------------------|
A|--3------5-----6------8----------------------------------------------------|
E|---------3-----------------------------------------------------------------|
   (C)    (G)   (D#)   (F)

Intro x1

Verse x1

Intro x1

Ref:
e|---------------------------------------------------------------------------|
B|---------------------------------------------------------------------------|
G|--10------8--------------10-------12---------------------------------------|
D|--10------8-------8------10-10----12---------------------------------------|
A|--8-------6-------8------8--10----10---------------------------------------|
E|------------------6---------8----------------------------------------------|
   (F)    (D#)    (Bb)   (F) (C)   (G)

Intro x2

Verse x1

Intro x1

Verse x1

Intro x1

Ref x2

Solo: OR IMPROVICE OVER (C)
e|---------------------------------------------------------------------------|
B|---------------------------------------------------------------------------|
G|---------------------------------------------------------------------------|
D|---------------------------------------------------------------------------|
A|---------------------------------------------------------------------------|
E|---------------------------------------------------------------------------|

e|---------------------------------------------------------------------------|
B|---------------------------------------------------------------------------|
G|---------------------------------------------------------------------------|
D|---------------------------------------------------------------------------|
A|---------------------------------------------------------------------------|
E|---------------------------------------------------------------------------|

e|---------------------------------------------------------------------------|
B|---------------------------------------------------------------------------|
G|---------------------------------------------------------------------------|
D|---------------------------------------------------------------------------|
A|---------------------------------------------------------------------------|
E|---------------------------------------------------------------------------|

e|---------------------------------------------------------------------------|
B|---------------------------------------------------------------------------|
G|---------------------------------------------------------------------------|
D|---------------------------------------------------------------------------|
A|---------------------------------------------------------------------------|
E|---------------------------------------------------------------------------|

 Outro-solo
e|---------------------------------------------------------------------------|
B|-----------------------------------------------8-11------------------------|
G|--5--8--8--5---5-8-8-8-8--5---5--8--8--5---5-8------8----------------------|
D|------------8--------------8-------------8---------------------------------|
A|---------------------------------------------------------------------------|
E|---------------------------------------------------------------------------|

Intro x2

Verse x1

Intro x1

Verse x1

Intro x1

Ref x2

Intro (Organ Solo) x8 Fade out


************************************

| /   slide up
| \   slide down
| h   hammer-on
| p   pull-off
| ~   vibrato
| +   harmonic
| x   Mute note
| b   Bend
| pb  Pre-bend
| br  Bend release
| pbr Pre-bend release
| brb Bend release bend

************************************
Добавлено: 17.05.2016
Другие материалы по этой песне:
  • Аккорды и текст

Страница создана 17.05.2016
http://primanota.ru/ruphus/coloured-dreams-chords.htm
Привет, Гость.
Предлагаем пройти революционный курс по гитаре.
Подарок от PrimaNota.Ru, забирай!