PrimaNota.ru - самый крупный в мире бесплатный архив песенных текстов, аккордов, табулатур и нот


Running Wild - Freewind Rider - аккорды и текст, таба, видео

Регистрация Запомнить меня
Войти через:  Facebook Google Twitter Vk Yandex Mail.ru

Running Wild - Freewind Rider - аккорды и текст, таба, видео

Печатать
Просмотров: 133
Freewind Rider
Running Wild
		   Freewind Rider
                           by Running Wild

                         Taken from the album
                            Black Hand Inn

Transcribed by Lasse: skonummer42@hotmail.com

Tempo:175bpm
The Solo is not tabbed.
All corrections are welcome! I guess it's some mistakes in there.
I have not shown any palm mutes or slides. Just listen to the record to find out.

v= volume swell
~= vibrato
x= dead note
"= paus

You wanna play some rock 'n' roll. Lets go...

Riff 1
E||-------------------------|-------------------------|
B||-------------------------|-------------------------|
G||-------------------------|-------------------------|
D||--4----4--6--4--2--4--6--|--4----4--6--4--2--0--2--|
A||--2----2--2--2--2--2--2--|--2----2--2--2--2--2--2--|
E||-------------------------|-------------------------|

|-------------------------|-------------------------|
|-------------------------|-------------------------|
|-------------------------|-------------------------|
|--4----4--6--4--2--4--6--|--4----4--6--4--2--0--2--|
|--2----2--2--2--2--2--2--|--2----2--2--2--2--2--2--|
|-------------------------|-------------------------|


Riff 2
|-------------------------|-------------------------|
|-------------------------|-------------------------|
|-------------------------|-------------------------|
|--4----4--6--4--2--4--6--|--4----4--6--4--2--4--6--|
|--2----2--2--2--2--2--2--|--2----2--2--2--2--2--2--|
|-------------------------|-------------------------|

|-------------------------|------------------------|
|-------------------------|------------------------|
|-------------------------|------------------------|
|--7----7--9--7--5--7--9--|------------------------|
|--5----5--5--5--5--5--5--|--2----2--4--2--0--2----|
|-------------------------|--0----0--0--0--0--0----|

|-------------------------|-------------------------|
|-------------------------|-------------------------|
|-------------------------|-------------------------|
|--4----4--6--4--2--4--6--|--4----4--6--4--2--4--6--|
|--2----2--2--2--2--2--2--|--2----2--2--2--2--2--2--|
|-------------------------|-------------------------|

|-------------------------|-------------------------|
|-------------------------|-------------------------|
|-------------------------|-------------------------|
|--7----7--9--7--5--7--9--|-------------------------|
|--5----5--5--5--5--5--5--|--2----2--4--2--0--2--4--|
|-------------------------|--0----0--0--0--0--0--0--|


Riff 3
|--------------------|--------------------|--------------------|--------------------|
|--------------------|--------------------|--------------------|--------------------|
|--------------------|--------------------|--------------------|--------------------|
|--4------------4----|--7------------7----|--4------------4----|--7--------2--------|
|--2------------2----|--5------------5----|--2------------2----|--5--------0--------|
|--------------------|--------------------|--------------------|--------------------|


Riff 4
|-------------------|------------------|------------------|------------------|
|-------------------|------------------|------------------|------------------|
|-------------------|------------------|------------------|------------------|
|--4----------------|------------------|------------------|------------------|
|--2----------------|------------------|------------------|------------------|
|-------------------|------------------|------------------|------------------|

|-------------------|------------------|-------------------|-------------------|
|-------------------|------------------|-------------------|-------------------|
|-------------------|------------------|-------------------|-------------------|
|--4v---------------|------------------|--7v---------------|--2v---------------|
|--2v---------------|------------------|--5v---------------|--0v---------------|
|-------------------|------------------|-------------------|-------------------|


Riff 5 * 2
|------------------------|--------------------------|
|------------------------|--------------------------|
|------------------------|--------------------------|
|--4---------------------|--------------------------|
|--2------2--2--2--2--2--|--2--2--2--2--2--2--2--2--|
|------------------------|--------------------------|

|--------------------------|------------------------|
|--------------------------|------------------------|
|--------------------------|------------------------|
|--------------------------|--x--4--4----x--2--2----|
|--2--2--2--2--2--2--2--2--|--x--2--2----x--0--0----|
|--------------------------|------------------------|

|------------------------|--------------------------|
|------------------------|--------------------------|
|------------------------|--------------------------|
|------------------------|--------------------------|
|--5---------------------|--------------------------|
|--3------3--3--3--3--3--|--3--3--3--3--3--3--3--3--|

|------------------------|------------------------|
|------------------------|------------------------|
|------------------------|------------------------|
|--9----------------9----|--2----2-----------2----|
|--7----7--7--7--7--7----|--0----0--0--0--0--0----|
|------------------------|------------------------|


Riff 6
|------------------------|------------------------|
|------------------------|------------------------|
|------------------------|------------------------|
|--7----7--4--2--4-------|-----4--2-----2----2----|
|--5----5--2--0--2----2--|--2--2--0--5--0----0----|
|------------------------|-----------3------------|

|------------------------|-----------------------|
|------------------------|-----------------------|
|------------------------|-----------------------|
|--7----7--4--2--4-------|-----4--2-----2--------|
|--5----5--2--0--2----2--|--2--2--0--5--0--------|
|------------------------|-----------3-----------|


Riff 7
|-------------------|-------------------|-------------------|--------------------|
|-------------------|-------------------|-------------------|--------------------|
|-------------------|-------------------|-------------------|--------------------|
|--4----------------|--------------4----|--7----------------|-----------2--------|
|--2----------------|--------------2----|--5----------------|--5--------0--------|
|-------------------|-------------------|-------------------|--3-----------------|

|-------------------|-------------------|-------------------|--------------------|
|-------------------|-------------------|-------------------|--------------------|
|-------------------|-------------------|-------------------|--------------------|
|--4----------------|--------------4----|--7----------------|-----------2--------|
|--2----------------|--------------2----|--5----------------|--5--------0--------|
|-------------------|-------------------|-------------------|--3-----------------|

|--------------------|-------------------|-------------------|--------------------|
|--------------------|-------------------|-------------------|--------------------|
|--------------------|-------------------|-------------------|--------------------|
|--4--"---4----------|--------------4----|--7----------------|-----------2--------|
|--2--"---2----------|--------------2----|--5----------------|--5--------0--------|
|--------------------|-------------------|-------------------|--3-----------------|

|-------------------|-------------------|-------------------|--------------------|
|-------------------|-------------------|-------------------|--------------------|
|-------------------|-------------------|-------------------|--------------------|
|--4----------------|--------------4----|--7----------------|-----------2--------|
|--2----------------|--------------2----|--5----------------|--5--------0--------|
|-------------------|-------------------|-------------------|--3-----------------|


Riff 8
|-------------------|-------------------|
|-------------------|-------------------|
|-------------------|-------------------|
|--4----------------|--------------x----|
|--2----------------|--------------x----|
|-------------------|-------------------|

|-------------------|-------------------|
|-------------------|-------------------|
|-------------------|-------------------|
|--9----------------|--------------9----|
|--7----------------|--------------7----|
|-------------------|-------------------|

|-------------------|------------------------|
|-------------------|------------------------|
|-------------------|------------------------|
|--4----------------|------------------------|
|--2----------------|---------------0--2--5--|
|-------------------|------0--3--0-----------|

|-------------------|------------------|
|-------------------|------------------|
|-------------------|------------------|
|--9----------------|------------------|
|--7----------------|------------------|
|-------------------|------------------|

|--------------------|-------------------|
|--------------------|-------------------|
|--------------------|-------------------|
|--12----------------|--2----------------|
|--10----------------|--0----------------|
|--------------------|-------------------|


Riff 9
|-------------------|------------------|-------------------|-------------------|
|-------------------|------------------|-------------------|-------------------|
|-------------------|------------------|-------------------|-------------------|
|--4----------------|------------------|--7----------------|-------------------|
|--2----------------|------------------|--5----------------|--5----------------|
|-------------------|------------------|-------------------|--3----------------|


Riff 10
|-------------------------|
|-------------------------|
|-------------------------|
|--4----4--6--4--2--4--6--|
|--2----2--2--2--2--2--2--|
|-------------------------|


Riff 11
|---------------------------|
|---------------------------|
|---------------------------|
|--9----9--11--9--7--9--11--|
|--7----7--7---7--7--7--7---|
|---------------------------|


Riff 12
|-------------------------|-------------------------|
|-------------------------|-------------------------|
|-------------------------|-------------------------|
|--4----4--6--4--2--4--6--|--4----4--6--4--2--4--6--|
|--2----2--2--2--2--2--2--|--2----2--2--2--2--2--2--|
|-------------------------|-------------------------|

|-------------------------|------------------------|
|-------------------------|------------------------|
|-------------------------|------------------------|
|--7----7--9--7--5--7--9--|------------------------|
|--5----5--5--5--5--5--5--|--2----2--4--2--0--2----|
|-------------------------|--0----0--0--0--0--0----|

|-------------------------|-------------------------|
|-------------------------|-------------------------|
|-------------------------|-------------------------|
|--4----4--6--4--2--4--6--|--4----4--6--4--2--4--6--|
|--2----2--2--2--2--2--2--|--2----2--2--2--2--2--2--|
|-------------------------|-------------------------|

|-------------------------|-------------------------|
|-------------------------|-------------------------|
|-------------------------|-------------------------|
|--7----7--9--7--5--7--9--|-------------------------|
|--5----5--5--5--5--5--5--|--2----------------------|
|-------------------------|--0----------------------|


Riff 13
|-------------------------|-------------------------|
|-------------------------|-------------------------|
|-------------------------|-------------------------|
|--6----6--8--6--4--6--8--|--6----6--8--6--4--6--8--|
|--4----4--4--4--4--4--4--|--4----4--4--4--4--4--4--|
|-------------------------|-------------------------|

|-------------------------|-------------------------|
|-------------------------|-------------------------|
|-------------------------|-------------------------|
|-------------------------|-------------------------|
|--2----2--4--2--0--2--4--|--4----4--6--4--2--4--6--|
|--0----0--0--0--0--0--0--|--2----2--2--2--2--2--2--|


|-------------------------|-------------------------|
|-------------------------|-------------------------|
|-------------------------|-------------------------|
|--6----6--8--6--4--6--8--|--6----6--8--6--4--6--8--|
|--4----4--4--4--4--4--4--|--4----4--4--4--4--4--4--|
|-------------------------|-------------------------|

|--------------------|--------------------|-------------------|
|--------------------|--------------------|-------------------|
|--------------------|--------------------|-------------------|
|-----------2--------|-----------4--------|--6----------------|
|--2--------0--------|--4--------2--------|--4----------------|
|--0-----------------|--2-----------------|-------------------|


Break
|------17--------15----|--14------------------|
|----------------------|------------15~-------|
|----------------------|----------------------|
|----------------------|----------------------|
|----------------------|----------------------|
|----------------------|----------------------|

|------17--------15----|--14------15--14----------|
|----------------------|----------------------17--|
|----------------------|--------------------------|
|----------------------|--------------------------|
|----------------------|--------------------------|
|----------------------|--------------------------|

|--------17--------15----|--14------------------|
|--15~-------------------|------------15~-------|
|------------------------|----------------------|
|------------------------|----------------------|
|------------------------|----------------------|
|------------------------|----------------------|

|------17--------15----|--14------15--14----------|
|----------------------|----------------------17--|
|----------------------|--------------------------|
|----------------------|--------------------------|
|----------------------|--------------------------|
|----------------------|--------------------------|

|--------17--------15----|--17------15--14------15--|
|--15~-------------------|--------------------------|
|------------------------|--------------------------|
|------------------------|--------------------------|
|------------------------|--------------------------|
|------------------------|--------------------------|

|--14~---17--------15----|--14------15--14----------|
|------------------------|----------------------17--|
|------------------------|--------------------------|
|------------------------|--------------------------|
|------------------------|--------------------------|
|------------------------|--------------------------|

|--------17--------15----|--14------------------|
|--15~-------------------|------------15~-------|
|------------------------|----------------------|
|------------------------|----------------------|
|------------------------|----------------------|
|------------------------|----------------------|

|------17--------15----|--14------15--14------12--|
|----------------------|--------------------------|
|----------------------|--------------------------|
|----------------------|--------------------------|
|----------------------|--------------------------|
|----------------------|--------------------------|

|--------------------|
|--15~---------------|
|--------------------|
|--------------------|
|--------------------|
|--------------------|


Playlist:

Riff 1 x 1
Riff 2 x 1
Riff 3 x 1
Riff 4 x 2
Riff 5 x 2
Riff 6 x 2
Riff 7 x 1
Riff 2 x 1
Riff 4 x 1
Riff 5 x 1
Riff 6 x 2
Riff 7 x 1
Riff 8 x 1
Riff 9 x 4 with Break
Riff 10 x 8
Riff 11 x 8
Riff 2 x 1
Riff 5 x 2
Riff 6 x 2
Riff 7 x 1
Riff 12 x 1
Riff 13 x 1 End.     
Добавлено: 19.11.2013
Другие материалы по этой песне:
  • Аккорды и текст

Страница создана 19.05.2012
http://primanota.ru/running-wild/freewind-rider-chords.htm
Привет, Гость.
Предлагаем пройти революционный курс по гитаре.
Подарок от PrimaNota.Ru, забирай!