PrimaNota.ru - самый крупный в мире бесплатный архив песенных текстов, аккордов, табулатур и нот


Running Wild - Adrian (S.O.S.) - текст песни, таба, видео

Регистрация Запомнить меня
Войти через:  Facebook Google Twitter Vk Yandex Mail.ru

Running Wild - Adrian (S.O.S.) - текст песни, таба, видео

Печатать
Просмотров: 88
-------------------------------------------------------------------------------
      RUNNING WILD-ADRIAN SOS from Gates to Purgatory 1984-Noise Int.
-------------------------------------------------------------------------------
Tabbed by:NihilView
E-mail:

Tuning:E standard

e|---------------------------------------------------------------------------|
B|---------------------------------------------------------------------------|INTRO+VERSE
G|------------------------------------5---------------------------------3----|
D|---------------------------------5--3------------------------------3--1----|BOTH GUITARS
A|---5-5-5-5-5-5-5-5-5-5-5--5--5---3--------3-3-3-3-3-3-3-3-3--3-3---1-------|
E|---------------------------------------------------------------------------|
   P.M..........................         P.M.......................
 


e|---------------------------------------------------------------------------|
B|---------------------------------------------------------------------------|
G|-----------------8--8--7--7------------------------------------------------| CHORUS
D|--5--5---3--3----8--8--7--7---10-10-10-10--8-------10--12------------------|
A|--5--5---3--3----6--6--5--5---8--8--8--8---6--/sl.-8---10------------------|
E|--3--3---1--1--------------------------------------------------------------|



e|---------------------------------------------------------------------------|
B|---------------------------------------------------------------------------|BRIDGE GUIT 1.
G|---------------------------------------------------------------------------|
D|--0-5-h-7--0-5-h-7-8-p-7--0-5-h-7--0-5-h-7---------------------------------|
A|---------------------------------------------3-vv--------------------------|
E|---------------------------------------------------------------------------|

e|---------------------------------------------------------------------------|
B|---------------------------------------------------------------------------|
G|---5-----7-----10-9----7---------------------------------------------------|BRIDGE GUIT.2
D|---5-----7-----8--7----7---------------------------------------------------|
A|---3-----5-------------5---------------------------------------------------|
E|---------------------------------------------------------------------------|

    SOLO!
    FOR SOLO BACKGROUND PLAY INTRO FIGURE AND CHORUS! 

************************************

| /   slide up
| \   slide down
| h   hammer-on
| p   pull-off
| ~   vibrato
| +   harmonic
| P.M. palm mute
| b   Bend
| pb  Pre-bend
| br  Bend release
| pbr Pre-bend release
| brb Bend release bend

************************************
Добавлено: 23.09.2015
Другие материалы по этой песне:
  • Аккорды и текст

Страница создана 05.07.2012
http://primanota.ru/running-wild/adrian-sos-chords.htm
Привет, Гость.
Предлагаем пройти революционный курс по гитаре.
Подарок от PrimaNota.Ru, забирай!