PrimaNota.ru - самый крупный в мире бесплатный архив песенных текстов, аккордов, табулатур и нот


Runaways - Take It Or Leave It - текст песни, таба, видео

Регистрация Запомнить меня
Войти через:  Facebook Google Twitter Vk Yandex Mail.ru

Runaways - Take It Or Leave It - текст песни, таба, видео

Печатать
Просмотров: 32
-------------------------------------------------------------------------------
                             TAKE IT OR LEAVE IT - The Runaways
-------------------------------------------------------------------------------
Tabbed by: suziqglitter
Tuning: Standard

INTRO
Lead guitar
e|-------------------------------------------------------------|
B|-----6----8----11~---11p10p9p8----6----8----11~----11\-------|
G|-------------------------------------------------------------|
D|-------------------------------------------------------------|
A|-------------------------------------------------------------|
E|-------------------------------------------------------------|

e|----------------------------|
B|---------8p7p6--------------|
G|----------------------------|
D|----------------------------|
A|----------------------------|
E|----------------------------| (x7)

e|--------5^--6p5---7p5---5\---5^--6p5---7p5---5\---5^--6p5---7p5---5---5h6p5--7~--5h6p5\-|
B|---6\-----------------------------------------------------------------------------------|
G|----------------------------------------------------------------------------------------|
D|----------------------------------------------------------------------------------------|
A|----------------------------------------------------------------------------------------|
E|----------------------------------------------------------------------------------------|

Rhythm guitar
e|--------------------------------------------------------------|
B|--------------------------------------------------------------|
G|--------------------------------------------------------------|
D|-----6-6--6-6--6-6--6-6--6-6--6-6--6-6--6-6--6---6-6----------|
A|-----6-6--6-6--6-6--6-6--6-6--6-6--6-6--6-6--6---6-6----------|
E|-----4-4--4-4--4-4--4-4--4-4--4-4--4-4--4-4--4---4-4----------|

VERSE (both guitars)
e|-----------------------------------------------------|
B|-----------------------------------------------------|
G|-------------6---------------------------------------|
D|--------6x---6---6---6x---4---5----------------------|
A|--------6x---4---6---6x---4---5----------------------|
E|--------4x-------4---4x---2---3----------------------|
          ^------------^-------------------------------| this parts should be played 12 times.
All verse part goes two times.

CHORUS
e|--------------------------------------------|
B|--------------------------------------------|
G|------------------------6--6-6--6-6--6-6----|
D|-----6--6-6--6-6--6-6---6--6-6--6-6--6-6----|
A|-----6--6-6--6-6--6-6---4--4-4--4-4--4-4----|
E|-----4--4-4--4-4--4-4-----------------------|
and then just play verse part three times, saving the rhythm.

VERSE
CHORUS

BRIDGE
Lead guitar
e|---6h7p6h8p6h9~-----7~---8~---9~------|
B|--------------------------------------|
G|--------------------------------------|
D|--------------------------------------|
A|--------------------------------------|
E|--------------------------------------|
Rhythm guitar
e|--------------------------|
B|--------------------------|
G|---------------6----------|
D|---4---5---6---6----------|
A|---4---5---6---4----------|
E|---2---3---4--------------|

SOLO - during the solo rhythm guitar plays verse and chorus part.

VERSE
CHORUS

OUTRO - the same like intro for rhythm guitar.
Lead guitar is just shredding up and down the scale.

************************************

| /   slide up
| \   slide down
| h   hammer-on
| p   pull-off
| ~   vibrato
| +   harmonic
| x   Mute note
| b   Bend
| pb  Pre-bend
| br  Bend release
| pbr Pre-bend release
| brb Bend release bend

************************************
Добавлено: 08.03.2016
Вам также может быть интересно:
Другие материалы по этой песне:
  • Аккорды и текст

Страница создана 19.01.2014
http://primanota.ru/runaways/take-it-or-leave-it-chords.htm
Привет, Гость.
Предлагаем пройти революционный курс по гитаре.
Подарок от PrimaNota.Ru, забирай!