PrimaNota.ru - самый крупный в мире бесплатный архив песенных текстов, аккордов, табулатур и нот


Runaways - Right Now - текст песни, таба, видео

Регистрация Запомнить меня
Войти через:  Facebook Google Twitter Vk Yandex Mail.ru

Runaways - Right Now - текст песни, таба, видео

Печатать
Просмотров: 35
-----------------------------------------------------------------------------
                             RIGHT NOW - Runaways
-------------------------------------------------------------------------------
Tabbed by: suziqglitter
Tuning: Standard

This is song written by Sandy West and appears on last Runaways' album ("And Now... The 
Runaways", 1978). This song contains only the rhythm part. Enjoy! :)

Intro
e|--------------------|
B|--------------------|
G|------9x------------|
D|------9x------------|
A|------7x------------|
E|--------------------|

Part below goes three times...
e|---------------------------------------------------------------|
B|---------------------------------------------------------------|
G|-------11----------------------9-9-9-9-9-9---------------------|
D|-------11---9~---9-9-9-9-9-9---9-9-9-9-9-9---------------------|
A|-------9----9~---9-9-9-9-9-9---7-7-7-7-7-7---------------------|
E|------------7~---7-7-7-7-7-7-----------------------------------|

...then:
e|---------------------------------------------------------------|
B|---------------------------------------------------------------|
G|-----11-11-11-11-11-11-11-11-11-11-11-11-11-11-11-11-----------|
D|-----11-11-11-11-11-11-11-11-11-11-11-11-11-11-11-11-----------|
A|-----9--9--9--9--9--9--9--9--9--9--9--9--9--9--9--9------------|
E|---------------------------------------------------------------|

Verse
Part below goes three times...
e|---------------------------------------------------------------|
B|---------------------------------------------------------------|
G|--------9~---11-11-11-11-11------------------------------------|
D|--------9~---11-11-11-11-11------------------------------------|
A|--------7~---9--9--9--9--9-------------------------------------|
E|---------------------------------------------------------------|

...then:
e|---------------------------------------------------------------|
B|---------------------------------------------------------------|
G|-----------------------9-9-9-9-9-9-9-9-------------------------|
D|-----9-9-9-9-9-9-9-9---9-9-9-9-9-9-9-9-------------------------|
A|-----9-9-9-9-9-9-9-9---7-7-7-7-7-7-7-7-------------------------|
E|-----7-7-7-7-7-7-7-7-------------------------------------------|

Chorus
Part below goes three times...
e|---------------------------------------------------------------|
B|---------------------------------------------------------------|
G|-------11---------------------------9x-9x-9x-9x-9x-9x----------|
D|-------11---9~---9x-9x-9x-9x-9x-9x--9x-9x-9x-9x-9x-9x----------|
A|-------9----9~---9x-9x-9x-9x-9x-9x--7x-7x-7x-7x-7x-7x----------|
E|------------7~---7x-7x-7x-7x-7x-7x-----------------------------|

...then (on mute note):
e|---------------------------------------------------------------|
B|---------------------------------------------------------------|
G|-----11-11-11-11-11-11-11-11-11-11-11-11-11-11-11-11-----------|
D|-----11-11-11-11-11-11-11-11-11-11-11-11-11-11-11-11-----------|
A|-----9--9--9--9--9--9--9--9--9--9--9--9--9--9--9--9------------|
E|---------------------------------------------------------------|

VERSE
CHORUS

BRIDGE

INTRO
VERSE
CHORUS

The last chorus (part below is played six times)
e|---------------------------------------------------------------|
B|---------------------------------------------------------------|
G|---13---------------------------------11-11-11-11-11-11-11-11--|
D|---13---11~--11-11-11-11-11-11-11-11--11-11-11-11-11-11-11-11--|
A|---11---9~---11-11-11-11-11-11-11-11--9--9--9--9--9--9--9--9---|
E|--------9~---9--9--9--9--9--9--9--9----------------------------|
               ^-------------------------------------------------|since this moment it goes on mute note

The song ends with one chord:
e|----------------|
B|----------------|
G|----------------|
D|----11~---------|
A|----11~---------|
E|----9~----------|


************************************

| /   slide up
| \   slide down
| h   hammer-on
| p   pull-off
| ~   vibrato
| +   harmonic
| x   Mute note
| b   Bend
| pb  Pre-bend
| br  Bend release
| pbr Pre-bend release
| brb Bend release bend

************************************
Добавлено: 08.03.2016
Другие материалы по этой песне:
  • Аккорды и текст

Страница создана 14.11.2013
http://primanota.ru/runaways/right-now-chords.htm
Привет, Гость.
Предлагаем пройти революционный курс по гитаре.
Подарок от PrimaNota.Ru, забирай!