PrimaNota.ru - самый крупный в мире бесплатный архив песенных текстов, аккордов, табулатур и нот


Runaways - Dont Abuse Me - текст песни, таба, видео

Регистрация Запомнить меня
Войти через:  Facebook Google Twitter Vk Yandex Mail.ru

Runaways - Dont Abuse Me - текст песни, таба, видео

Печатать
Просмотров: 160
DON'T ABUSE ME (The Runaways)

This is my first tab, I didn't found any tabs to this song,
 so I took it by ear. Enjoy!

P.S.: THIS IS JOAN JETT'S VERSION!

The dots mean I couldn't count the number of pickings, so you gotta
listen to the song and follow the rhythm.

(Os pontos significam que eu nгo contei o nъmero de palhetadas, entгo vocк
tem que ouvir a mъsica e seguir o ritmo.)

Tunning: Standard EADGBe


INTRO
e|-----------|-------------------------|
B|-----------|-------------------------|
G|-7--5------|-----5--7----------------|
D|-7--5--5---|--5--5--7----------------|
A|-5--3--5---|--5--3--5----------------|
E|-------3---|--3----------------------|


-------------|-------------------------|
-------------|-------------------------|
----7--5-----|--------7----------------|
----7--5--5--|--5--7--7----------------|
----5--3--5--|--5--7--5----------------|
----------3--|--3--5-------------------|


-----------------------------------|
-----------------------------------|
--6/77-6/77-------5----------------|
--6/77-6/77-------5--5-------------|
--4/55-4/55-------3--5-------------|
---------------------3-------------|


VERSE
e|-------------------------------------------------------|
B|-------------------------------------------------------|
G|-------------5---------------5------777....--5---------|
D|--777....----5-5---777....---5-5----777....--5-5-------|
A|--777....----3-5---777....---3-5----555....--3-5-------|
E|--555....------3---555....-----3---------------3-------|


--------------------------|
--------------------------|
--------------------------|
----777....---5-----------|
----777....---5-----------|
----555....---3-----------|



CHORUS
e|-----------|-------------------------|
B|-----------|-------------------------|
G|-7--5------|-----5--7----------------|
D|-7--5--5---|--5--5--7----------------|
A|-5--3--5---|--5--3--5----------------|
E|-------3---|--3----------------------|


-------------|-------------------------|
-------------|-------------------------|
----7--5-----|--------7----------------|
----7--5--5--|--5--7--7----------------|
----5--3--5--|--5--7--5----------------|
----------3--|--3--5-------------------|


-----------------------------------|
-----------------------------------|
--6/77-6/77-------5----------------|
--6/77-6/77-------5--5-------------|
--4/55-4/55-------3--5-------------|
---------------------3-------------|


VERSE

CHORUS


BRIGDE (during the solo)
e|------------------------------------|
B|------------------------------------|
G|--6/77--6/77-7-8-9..........\8------|
D|--6/77--6/77-7-8-9..........\8------|
A|--4/55--4/55-5-6-7..........\6------|
E|------------------------------------|


------------------------------|
------------------------------|
---9........\8----------------|
---9........\8----------------| (3x)
---7........\6----------------|
------------------------------|


CHORUS

VERSE

CHORUS


and then (this is a variation you gotta play after some chorus)
--------------------|
--------------------|
--6/77--------------|
--6/77--------------|
--4/55--------------|
--------------------|


e|-----------|-------------------------|
B|-----------|-------------------------|
G|-7--5------|-----5--7----------------|
D|-7--5--5---|--5--5--7----------------|
A|-5--3--5---|--5--3--5----------------|
E|-------3---|--3----------------------|


-------------|-------------------------|
-------------|-------------------------|
----7--5-----|--------7----------------|
----7--5--5--|--5--7--7----------------|
----5--3--5--|--5--7--5----------------|
----------3--|--3--5-------------------|


END OF THE SONG
e|-----------------------------------|
B|-----------------------------------|
G|--6/77--6/77--7-8--------------7---|
D|--6/77--6/77--7-8-7..........--7---|
A|--4/55--4/55--5-6-7..........--5---|
E|------------------5..........------|


Thank you and I hope I've helped you.
If you find something wrong, let me know.
Добавлено: 25.09.2013
Другие материалы по этой песне:
  • Аккорды и текст

Страница создана 28.08.2013
http://primanota.ru/runaways/dont-abuse-me-chords.htm
Привет, Гость.
Предлагаем пройти революционный курс по гитаре.
Подарок от PrimaNota.Ru, забирай!