PrimaNota.ru - самый крупный в мире бесплатный архив песенных текстов, аккордов, табулатур и нот


Run Kid Run - Farewell Old Self - таба, видео

Регистрация Запомнить меня
Войти через:  Facebook Google Twitter Vk Yandex Mail.ru

Run Kid Run - Farewell Old Self - таба, видео

Печатать
Просмотров: 64
-----------------------------------------------------------------------------
                           FAREWELL OLD SELF             RUN KID RUN
-----------------------------------------------------------------------------

Tabbed by:hurricaneherman
Tuning:Standard - Capo 1st

~INTRO~

Lets start this over, lets start this over

~VERSE~

I'm getting out for the better of a notion
I'm getting out for the better of my heart
I'm getting out from my lack of motivation
I'm getting out cause my beating heart it's stopped

e|---|-------------0------------------|
B|---|-----2---------------2----------|
G|---|-2-------2-------2-------2------|
D|--2|-----------------------------2--|X(repeats throughout verse)
A|-0-|---0---0---0---0---0---0---0----|
E|0--|--------------------------------|
  /\Don't repeat this part*

Lets start this over, lets start this over

I'm getting out for a bigger loving motion
I'm getting out for a bigger loving heart
I'm getting out for a bigger satisfaction
I'm getting out as my bigger heart restarts

Lets start this over, lets start this over

~CHORUS~

       F#m            D
And so farewell to my old self
A                             E
I can hear the beating of the drums
    F#m      D
And sorry forgive me
  A                                 E
I couldn't see the patterns as they fell
N.C
I'm starting over...

=============================================================================
*replace it with open on the 5th string

I hope this is accurate in your eyes. :)
Добавлено: 11.09.2013
Другие материалы по этой песне:
  • Аккорды и текст

Страница создана 11.09.2013
http://primanota.ru/run-kid-run/farewell-old-self-chords.htm
Привет, Гость.
Предлагаем пройти революционный курс по гитаре.
Подарок от PrimaNota.Ru, забирай!