PrimaNota.ru - самый крупный в мире бесплатный архив песенных текстов, аккордов, табулатур и нот


Run-D.M.C. - Walk This Way - текст песни, таба, видео

Регистрация Запомнить меня
Войти через:  Facebook Google Twitter Vk Yandex Mail.ru

Run-D.M.C. - Walk This Way - текст песни, таба, видео

Печатать
Просмотров: 33
Walk this way
Run DMC Feat. Aerosmith
Run DMC Greatest hits
Tabbed By: Lloyd Roberts

I'm pretty sure that this tab is 100% correct.
It's dead easy to play and sounds great so take your time to learn it properly! It's worth it
Sorry! No solos!

Standard tuning EADGBE

Symbols
h=hammer on
v=vibrato
x=mute

For the intro hammer on to the 2nd and 3rd notes (listen to the song, you'll pick it up)

Intro
E------------------------------------------------
B------------------------------------------------
G------------------------------------------------
D--------------2---------2----------2--------2-v2
A-222--0-h1-h2---0-h1-h2----0-h1-h2---0-h1-h2----
E-------------------------0-------------------3-
Play that until the verse kicks in

Verse-This is a bit tricky
E------------
B------------
G-9---9-9--9-
D------------
A-10-12-13-12
E-8---8-8--8-
      Play these three chords quite quickly
Keep repeating that for the verse

Somewhere in the verse there are two different bits, fit these in when needed
E-8----------------            E-x-x-x-x-x-x---
B-10-10-10-10-10-10            B-x-x-x-x-x-x---
G-8----------------            G-x-x-x-x-x-x---
D-8----------------            D-x-x-x-x-x-x---
A-8----------------            A-x-x-x-x-x-x---
E-8----------------            E-x-x-x-x-x-x---
Chorus
E-8---8--8---10
B-8---10-10--10
G-9---10-8---8
D-10--8--10--8
A-10--8--8---8
E-8---8--8---8

Play that again

That's pretty much it; I'll be back with the solos another time.
Find any mistakes just correct the tab and submit it to ultimate-guitar!

Have fun!
Добавлено: 31.03.2016
Другие материалы по этой песне:
  • Аккорды и текст

Страница создана 31.08.2013
http://primanota.ru/run-dmc-2/walk-this-way-chords.htm
Привет, Гость.
Предлагаем пройти революционный курс по гитаре.
Подарок от PrimaNota.Ru, забирай!