PrimaNota.ru - самый крупный в мире бесплатный архив песенных текстов, аккордов, табулатур и нот


Rugsted And Kreutzfeldt - Spring Op Tag Med - таба, видео

Регистрация Запомнить меня
Войти через:  Facebook Google Twitter Vk Yandex Mail.ru

Rugsted And Kreutzfeldt - Spring Op Tag Med - таба, видео

Печатать
Просмотров: 88
-----------------------------------------------------------------------
              Spring op, tag med – Rugsted/Kreutzfeldt
-----------------------------------------------------------------------

Tabbed by: Skipper Mikkel
Email: Mikkel_sejl@Hotmail.com

Tuning: Standard (low to high - EADGBE)


 
Intro:

Riff A:  x 2
|-7--------7------7------7--------7-|
|-----8-10---8-10---8-10-----8-10---|
|-----------------------------------|
|-----------------------------------|
|-----------------------------------|
|-----------------------------------|


Verse 1:

G
Ok, hvis du spørg'
   Bm                         
Så er jeg blevet hooked på
C         G          
Hooked på dig
Em            A
Du skinner og blinker
C                     Dsus4        
Asfaltlir med mange gir
 

Verse 2:

Tandhjulet klikker
Og gearet tikker
Marker omkring os
Med blomsterduft i morgenluft


Chorus 1:

Riff B:  x 2 
|-3-3-3-3-3-3-3-3-3-3-3-3-3-3-3-3-|
|-3-3-3-3-3-3-3-3-3-3-3-3-3-3-3-3-|
|-0-0-0-0-0-0-0-0-0-0-0-0-0-0-0-0-|
|-0-0-0-0-2-2-2-2-2-2-2-2-2-0-2-0-|
|-2-2-2-2-2-2-2-2-0-0-0-0-3-2-0-0-|
|-3-3-3-3-0-0-0-0-----------------|
#+Riff A for guitar 2# 

Spring op tag med
Vi er sammen (sammen til et eventyr)
Spring op tag med
Vi er sammen (her på landevejen)
G         G


Verse 3:

Teltet var vådt
Duggens diamanter
Vi pakked' tasker
Asfalten spinder
Sin egen sang endnu en gang


Verse 4:

Ud gennem landet
Hvor vinden synger
Du' venner med lærken
Fra mit styr et eventyr 


Chorus 2:

Spring op tag med
Vi er sammen (her på landevejen)
Spring op tag med
Vi er sammen (sammen til et eventyr)


Solo


Chorus 1  x 4



Добавлено: 04.05.2012
Вам также может быть интересно:
Другие материалы по этой песне:
  • Аккорды и текст

Страница создана 04.05.2012
http://primanota.ru/rugsted-and-kreutzfeldt/spring-op-tag-med-chords.htm
Привет, Гость.
Предлагаем пройти революционный курс по гитаре.
Подарок от PrimaNota.Ru, забирай!