PrimaNota.ru - самый крупный в мире бесплатный архив песенных текстов, аккордов, табулатур и нот


Rufio - Science Fiction - аккорды и текст, таба, бас-таба, видео

Регистрация Запомнить меня
Войти через:  Facebook Google Twitter Vk Yandex Mail.ru

Rufio - Science Fiction - аккорды и текст, таба, бас-таба, видео

Печатать
Просмотров: 216
Science Fiction
Rufio
		   Intro (x4)
e|----------------------------------------------------------------|
b|--------------5-------------------------------------------------|
g|-6---2--1----------2-----6---2---2---4---6-----1---2-----4---2--|
D|---4---4--4-4----4---4-4---4---2---2---2---2-2---2---2-2---2----|
A|----------------------------------------------------------------|
E|----------------------------------------------------------------|

Verse (this part x2)

e|-------------------------------------------------|
b|-------------------------------------------------|
g|-------------------------------------------------|
D|-4-4-4-4-4x--4-4-4-4-4x--7-7-7-7-7x--2-2-2-2-2x--|
A|-4-4-4-4-4x--4-4-4-4-4x--7-7-7-7-7x--2-2-2-2-2x--|
E|-2-2-2-2-2x--2-2-2-2-2x--5-5-5-5-5x--0-0-0-0-0x--|



Verse Cont'd. (x2)
e|------------------------------------------------------------------------|
b|------------------------------------------------------------------------|
g|-------6------6---6---6-6---6-6-------9------9--------------------------|
D|--4-4----4-4----4---4-4-4-4-4-4---7-7---7-7------9----9-----9-9----9-9--|
A|----------------------------------------------------7-7---7-7-7--7-7-7--|
E|------------------------------------------------------------------------|

Pre-Chorus
e|-----------------------|
b|-----------------------|
g|-----------------------|
D|-7-7--7-7-7--7-7-7-7-7-|
A|-5-5--5-5-5--5-5-5-5-5-|
E|-5-5--5-5-5--5-5-5-5-5-|


Pre-Chorus Cont'd
e|-----------------------------------------|
b|--5--------------5---------2---5---------|
g|------2----1----------2-------------2----|
D|----4---4-----4----4----4----4---4----4--|
A|-----------------------------------------|
E|-----------------------------------------|

Repeat Pre-Chorus (x2)

End of Pre-Chorus
e|-----------------------------------------------------|
b|-----------------------------------------------------|
g|-------------------------9-9-9-9-9-9-9-9-9-9-9-------|
D|--7-7-7--7-7-7--7-7-7-7--9-9-9-9-9-9-9-9-9-9-9-------|
A|--5-5-5--5-5-5--5-5-5-5--7-7-7-7-7-7-7-7-7-7-7-------|
E|--5-5-5--5-5-5--5-5-5-5------------------------------|



Chorus "Don't believe in science fiction..."
e|--------------------------------------------------------------------|
b|--------------------------------------------------------------------|
g|--------------------------------------------------------------------|
D|-7-7-7-7-7-7-7-7--2-2-2-2-2-2-2-2--4-4-4-4-4-4-4-4--7-7-7-7-7-7-7-7-|
A|-7-7-7-7-7-7-7-7--2-2-2-2-2-2-2-2--4-4-4-4-4-4-4-4--5-5-5-5-5-5-5-5-|
E|-5-5-5-5-5-5-5-5--0-0-0-0-0-0-0-0--2-2-2-2-2-2-2-2------------------|

Chorus Cont.
e|-------------------------------------------------------|
b|--5-----------5------------5-----------5------------5--|
g|----2-2-2-2-2----2-2-2-2-4---2-2-2-2-2----2-2-2-2-4----|
D|-------------------------------------------------------|
A|-------------------------------------------------------|
E|-------------------------------------------------------|

Chorus Cont'd.
e|--------------------------------------------|
b|------------5-------------------------------|
G|--2-2-2-2-2----2-2-2-2-4-4-2---------2-2-2--|
D|-----------------------------2-2-2-2--------|
A|--------------------------------------------|
E|--------------------------------------------|

Interlude (x2)
e|--12h14p12------12h14p12-----17~--12h14p12------12h14p12-------------|
b|-----------14~-----------14~---------------14~-----------14\10/12~---|
g|---------------------------------------------------------------------|
D|---------------------------------------------------------------------|
A|---------------------------------------------------------------------|
E|---------------------------------------------------------------------|

Repeat Verse
Repeat Pre-Chorus (x3)
Repeat End of Pre-Chorus
Repeat Chorus

Bridge (x4)
e|----------------------------|
b|----------------------------|
g|-6-6-6-6-6-6--9-9x--9-9x----|
D|-4-4-4-4-4-4--7-7x--7-7x----|
A|----------------------------|
E|----------------------------|

Bridge Cont'd.
e|------------------------------------|
b|------------------------------------|
g|------------------------------------|
D|--7-7-7-7-7-7-7-7--9-9-9-9-9-9-9-9--|
A|--7-7-7-7-7-7-7-7--9-9-9-9-9-9-9-9--|
E|--5-5-5-5-5-5-5-5--7-7-7-7-7-7-7-7--|

End of Bridge
e|--------------------------------------------|
b|--------------------------------------------|
g|--7-7-7-7-7-7-7-7-7-7-7-9-9-9-9-9-9-9-9-9-9-|
D|--7-7-7-7-7-7-7-7-7-7-7-9-9-9-9-9-9-9-9-9-9-|
A|--5-5-5-5-5-5-5-5-5-5-5-7-7-7-7-7-7-7-7-7-7-|
E|--------------------------------------------|

Repeat End of Chorus (x2)
Repeat Intro (x4)

Outro (x2)
e|--------------------------------------------------------------|
b|--------------------------------------------------------------|
g|--------------------------------------------------------------|
D|--7-7-7-7-7-7-7--7-7-7-7-7-7-7--7-7-7-7-7-7-7--6-6-6-6-6-6-6--|
A|--------------------------------------------------------------|
E|--------------------------------------------------------------|     
Добавлено: 29.09.2013
Другие материалы по этой песне:

Страница создана 25.02.2012
http://primanota.ru/rufio/science-fiction-chords.htm
Привет, Гость.
Предлагаем пройти революционный курс по гитаре.
Подарок от PrimaNota.Ru, забирай!