PrimaNota.ru - самый крупный в мире бесплатный архив песенных текстов, аккордов, табулатур и нот


Rufio - Mcmlxxxv 1985 - бас-таба, видео

Регистрация Запомнить меня
Войти через:  Facebook Google Twitter Vk Yandex Mail.ru

Rufio - Mcmlxxxv 1985 - бас-таба, видео

Печатать
Просмотров: 165
 R U F I O - M C M L X X X V  ( 1 9 8 5 )
 ----------------------------------------
 1. Countdown
 2. White Lights
 3. Science Fiction
 4. Why Wait?
 5. We Exist
 6. Follow Me
 7. Control
 8. Set It Off
 9. Decency
 10. Pirate
 11. Goodbye
 12. Over It
 

 Oscar Olarte/rufiopunkrock
 If you have any questions,comments.....oscardanielof@hotmail.com
 www.myspace.com/bassnautilius

 





1. COUNTDOWN
   
   Tuning: EADG

  Intro

G|---------------------------------------------|
D|---------------------------------------------|  
A|---------------------------------------------|
E|--7/3-333-33-3-555-55-5-222-22-2-333-33xxxx--|

G|-----------------------------------------|
D|-----------------------------------------|  
A|-----------------------------------------|
E|--3-333-33-3-555-55-5-222-22-2-333-33-3--|

G|---------------------------|
D|---------------------------|  
A|------------2~---4~--------|
E|--3~---5~-------------55x--|

  Verse
  "Make up your mind......."

G|-------------------------------------------|
D|-------------------------------------------| (x2) 
A|--------------------5555555x5--------------|
E|--77777777-33333333-----------5555xxx5555--|

  Pre-chorus
  "The gate swung......"

G|-------------------------------------------------|
D|-------45----------------------------------------| 
A|------5-----------------2222222222-44444444-245--|
E|--3333---333-5555555555--------------------------|

G|-----------------------------------------------|
D|-----------------------------------------------| 
A|--------------------542-2222222222-4444444444--|
E|--3333333333-5555555---------------------------|

  Chorus
  "My timing's off...."

G|--------------------------------------------------------------|
D|--------------------------------------------------------------| (x2)
A|--555555-----444-5555\12121212----------------777x77x7777x7x--|
E|---------555-------------------5-77x777x77x7x-----------------|

  Intro

G|-----------------------------------------|
D|-----------------------------------------|  
A|-----------------------------------------|
E|--3-333-33-3-555-55-5-222-22-2-333-33-3--|

G|-----------|
D|-----------|  
A|-----------|
E|--3~---5~--|
 
  Verse Variation
  "You try saying everything's over...."

G|-----------------------------------------|
D|-----------------------------------------|  
A|--22222222----------55555555-------------|
E|-----------33333333----------55555xx55---|

  Verse
  "Any single problem in your wondering mind......."

G|-------------------------------------------|
D|-------------------------------------------| 
A|--------------------5555555x5--------------|
E|--77777777-33333333-----------5555xxx5555--|

G|-------------------------------------------|
D|---------------45--------------------------| 
A|-------------53-----5555555x5--------------|
E|--77777777-33----33-----------5555xxx5555--|

  Pre-chorus
  "The gate swung......"

G|-----------------------------24---------------------|
D|---------------------------24-----------------------| 
A|------------------------222----222-44444444-4x4x5x--|
E|--3333333333-5555555555-----------------------------|

  Chorus
  "My timing's off...."

G|--------------------------------------------------------------|
D|--------------------------------------------------------------| (x2)
A|--555555-----444-5555\12121212----------------777x77x7777x7x--|
E|---------555-------------------5-77x777x77x7x-----------------|

  Bridge

G|--------------------------------|
D|--------------------------------| (x2)
A|-----------------------5554455--|
E|--33333x-55555x-77777x----------|

  Bridge Variation
  "Cant take back......." 

G|---------------------------------------|
D|--55555555-77777777-44444444-55544555--| (x4)
A|---------------------------------------|
E|---------------------------------------|

  Post-bridge

G|------------------------|
D|------------------------| 
A|------------------------|
E|--77777--3~--77777--5~--|

  Chorus
  "My timing's off...."

G|--------------------------------------------------------------|
D|--------------------------------------------------------------| (x2)
A|--555555-----444-5555\12121212----------------777x77x7777x7x--|
E|---------555-------------------5-77x777x77x7x-----------------|

  End

G|-------------|
D|-------------| 
A|-------------|
E|--77777--7~--|








2. WHITE LIGHTS
   
   Tuning: EADG

  Intro

G|---------------------------------------------------------|
D|---------------------------------------------------------|
A|---------------------------------------------------------|
E|--222-44x-00x-222-44x-00x-222-44x-00x-222-44x-00x-22222--|

  Verse
  "Honestly, with the things I've seen..." 

G|-----------------------------------|
D|-----------------------------------| (x2)
A|------------------2222222----------|
E|--4444444-0000000---------2222222--|

  Pre-Chorus
  "Be honest, we'll be afraid..."
 
G|----------------------------------------|
D|----------------------------------------|
A|----------------------------------------|
E|--000x---222x---000x---222x---0000-000--|

  Chorus
  "Time is wasted and gone........"

G|--------------------------------------------------|
D|--------------------------------------------------|
A|----------------------22-222----------------------|
E|--444-44-00-00-22-222--------444-44-00-00-2-0000--|
 
G|----------------------------------------------------|
D|----------------------------------------------------|
A|----------------------22-222------------------------|
E|--444-44-00-00-22-222--------444-44-22-222-0000000--|

  Intro

G|-----------------------------------------------------|
D|-----------------------------------------------------|
A|-----------------------------------------------------|
E|--44x-00x-222-44x-00x-222-44x-00x-222-44x-00x-22222--|

  Verse
  "So this is what you want to be......." 

G|-----------------------------------|
D|-----------------------------------| 
A|------------------2222222----------|
E|--4444444-0000000---------2222222--|

G|-----------------------------------|
D|-----------------------------------| 
A|-----------------------------------|
E|--4444444-2222222-000000000000000--|

  Pre-Chorus
  "Be honest, we'll be afraid..."
 
G|-----------------------444------------------------------|
D|--------------------------444222111---------------------|
A|-----------------------------------222------------------|
E|--000x---222x---12/000x----------------222x---0000-000--|

  Chorus
  "Time is wasted and gone........"

G|--------------------------------------------------|
D|--------------------------------------------------|
A|----------------------22-222----------------------|
E|--444-44-00-00-22-222--------444-44-00-00-2-0000--|
 
G|-----------------------------------------------------|
D|-----------------------------------------------------|
A|----------------------22-222-------------------------|
E|--444-44-00-00-22-222--------444-44-22-222-0000000x--|

  Bridge
  "irresistance you will find...."

G|--15h16~--|
D|----------|
A|----------|
E|----------|

G|------------------------------------------------------|
D|------------------------------------------------------| (x2)
A|----13-13-13x-----13-1313-1414------------------------|
E|--7-----------777--------------7x777x7-7xx6-2xx2\12---|

G|-----------------------------------|
D|-----------------------------------|
A|---------------------9999-99-999x--|
E|--0000-0-000-0-2222-2--------------|

  Chorus
  "Time is wasted and gone........"

G|-------------------------------------------|
D|-------------------------------------------|
A|---------------22-222----------------------|
E|--00-00-22-222--------444-44-00-00-2-0000--|
 
G|----------------------------------------------------|
D|----------------------------------------------------|
A|----------------------22-222------------------------|
E|--444-44-00-00-22-222--------444-44-22-222-0000000--|

  Chorus Modification
  "Time is wasted and gone........"

G|--------------------------------------------------|
D|-------------------------------4------------------|
A|---------77-77--------22-222--2-----77-77-9-7777--|
E|--444-44-------22-222--------4---44---------------|
 
G|-----------------------------------------------------|
D|-----------------------------------------4-----------|
A|---------77-77--------22-222------------2------------|
E|--444-44-------22-222--------444-44-22-0---0000000x--|

  End

G|-------------------------------|
D|-------------------------------|
A|-------------------------------|
E|--44x-00x-222-44x-00x-222-44x--|







3. SCIENCE FICTION
   
   Tuning: EADG

  Intro

G|-----------------|
D|-----------------|
A|-----------------|
E|--555555-000000--|

G|---------------------------|
D|---------------------------| (x3)
A|---------------------------|
E|--222222222-555555-000000--|

  Verse
  "These are the whispers that you hear inside your mind....." 

G|------------------------------|
D|------------------------------| (x2)
A|------------------------------| 
E|--2222x--2222x--5555x--0000x--|

G|------------------------------|
D|------------------------------| 
A|------------------------------|
E|--12/222222222-555555-000000--|

G|------------------------------|
D|------------------------9--9--| 
A|----------------------77-77---|
E|--12/222222222-555555---------|


  Pre-chorus
  "Prove it to the world you're perfect....."

G|---------------------------|
D|---------------------------|
A|--55xxx55xxx5--------------|
E|--------------2222-22-222--|

G|---------------------------|
D|---------------------------|
A|--55xxx55xxx5-9999-99-999--|
E|---------------------------|

G|---------------------------|
D|--------------4444-44-444--|
A|--55xxx55xxx5--------------|
E|---------------------------|

G|---------------------------|
D|---------------------------|
A|--55xxx55xxx5-77777777777--|
E|---------------------------|

  Chorus
  "Don't believe this science fiction...."		

G|----------------------------------------------------------------------------|
D|--77777777-77779767---------------------------------------------------------|
A|--------------------77777777-777777777-99999999-99999999-55555555-55555555--| 
E|----------------------------------------------------------------------------|

G|------------------------796-----------------------97------------------------|
D|--77777777-77777777---79----------------------------96----------------------|
A|--------------------77-----7-777777777-99999999-99----99-55555555-77777777--| 
E|----------------------------------------------------------------------------|

  Post-chorus

G|----------------------------------------------------------|
D|--444-44444-44-77777-------444444/2\444444----------------| (x2)
A|--------------------77777---------------------------------| 
E|-------------------------------------------555555-444444--|

  Verse
  "There's more to life than all the beauty that they sell........." 

G|------------------------------|
D|------------------------------| (x2)
A|------------------------------| 
E|--2222x--2222x--5555x--0000x--|

G|------------------------------|
D|------------------------------| 
A|------------------------------|
E|--12/222222222-555555-000000--|

G|------------------------------|
D|------------------------9--9--| 
A|----------------------77-77---|
E|--12/222222222-555555---------|


  Pre-chorus
  "Prove it to the world you're perfect....."

G|---------------------------|
D|---------------------------|
A|--55xxx55xxx5--------------|
E|--------------2222-22-222--|

G|---------------------------|
D|---------------------------|
A|--55xxx55xxx5-9999-99-999--|
E|---------------------------|

G|---------------------------|
D|--------------4444-44-444--|
A|--55xxx55xxx5--------------|
E|---------------------------|

G|---------------------------|
D|---------------------------|
A|--55xxx55xxx5-77777777777--|
E|---------------------------|

  Chorus
  "Don't believe this science fiction...."		

G|----------------------------------------------------------------------------|
D|--77777777-77779767------------------------------7910-----------------------|
A|--------------------77777777-777777777-99999999-9----999-55555555-55555555--| 
E|----------------------------------------------------------------------------|

G|------------------------796-----------------------97------------------------|
D|--77777777-77777777---79----------------------------96----------------------|
A|--------------------77-----7-777777777-99999999-99----99-55555555-77777777--| 
E|----------------------------------------------------------------------------|

  Bridge
  "Beautiful lies, are all she's ever known..." 

G|---------------------------------|
D|---------------------------------| (x2)
A|--4xxx4xx44x4-7xx7---------------|
E|-------------------555555-77777--|

G|-----------------------------------|
D|------------------------------4----| 
A|--4xxx4xx44x4-7xx7----------4------|
E|-------------------555555-55-5-55--|

G|---------------------------------|
D|---------------------------------| 
A|--4xxx4xx44x4-7xx7---------------|
E|-------------------555555-77777--|

G|---------------------87----|
D|-----------------------85--|
A|--5555555555555555-77------|
E|---------------------------|

  Chorus
  "Don't believe this science fiction...."		

G|---------------------------------------------------------------------------|
D|--77777777-77777777-----------------------------------------------420------|
A|--------------------77777777-777777777-99999999-99999999-55555555----320---| 
E|------------------------------------------------------------------------3--|

G|------------------------796-----------------------97------------------------|
D|--77777777-77777777---79----------------------------96----------------------|
A|--------------------77-----7-777777777-99999999-99----99-55555555-77777777--| 
E|----------------------------------------------------------------------------|

  Post-Chorus

G|-----------------------------|
D|--4444444444444-77777--------| (x4)
A|----------------------77777--|
E|-----------------------------|

G|-------------------------------------|
D|--444xx444x4444x444-77xx777----------| (x3)
A|----------------------------777xx77--|
E|-------------------------------------|

  End

G|--------------------------------------|
D|--444xx444x4444x444-77xx777-222xx22x--| 
A|--------------------------------------|
E|--------------------------------------|








4. WHY WAIT?
   
   Tuning: EADG

  Intro

G|-------------------------------------|
D|-------------------------------------| (x2)
A|-------------------------------------|
E|--444-44-666-66777-77-000-00-222-22--|

  Verse
  "Growing old, and living for...."
 
G|------------------------------------|
D|------------------------------------| 
A|------------------------------------|
E|--44444444444444-00000000000000000--|

G|--------------------------------44--|
D|------------------------------------| 
A|---------------------------22222----|
E|--44444444444444-0000000000---------|

G|------------------------------------|
D|------------------------------------| 
A|------------------------------------|
E|--44444444444444-00000000000000000--|

G|-----------------------------|
D|-----------------------------| 
A|-----------------------------|
E|--44444444444444-0000000000--|

  Pre-chorus
  "Thinking love is gone, It's gone....."

G|---------------------------|
D|---------------------------| 
A|--11-1-1-1-2-2-2-2-2-2-----|
E|-----------------------0~--| 

  Chorus
  "Why wait for you to come home....." 

G|-------------------------------------------------------------|
D|-------------------------------------------------------------| 
A|--2222-22-222-22----------------2222-22-222-22--77777-99999--|
E|-----------------0000-00-000-00------------------------------|

G|------------------------------11--------|
D|---------------------------9------------| 
A|------------------------99---9---9p8h9--|
E|--4444444-00000000-4444-----------------|

G|----------|
D|----------| 
A|----------|
E|--0-0-2~--| 

  Intro

G|-------------------------------------|
D|-------------------------------------| (x2)
A|-------------------------------------|
E|--444-44-666-66777-77-000-00-222-22--|


  Verse
  "Growing old, and living for...."
 
G|-----------------------------96-----|
D|---------------------------97-------| 
A|-----------------7777777777----777--|
E|--44444444444444--------------------|

G|--------------------------------44--|
D|------------------------------24----| 
A|---------------------------222------|
E|--44444444444444-0000000000---------|

G|-----------------------------------------|
D|-----------------------------------------| 
A|-----------------777777777-6-5-3-1-7777--|
E|--44444444444444-------------------------|

G|-----------------------------|
D|-----------------------------| 
A|-----------------7777777777--|
E|--44444444444444-------------|

  Pre-chorus
  "Thinking love is gone, It's gone....."

G|---------------------------|
D|---------------------------| 
A|--11-1-1-1-2-2-2-2-2-2-----|
E|-----------------------0~--| 

  
  Chorus
  "Why wait for you to come home....." 

G|-------------------------------------------------------------|
D|-------------------------------------------------------------| 
A|--2222-22-222-22----------------2222-22-222-22--77777-99999--|
E|-----------------0000-00-000-00------------------------------|

G|------------------------------11--------|
D|---------------------------9------------| 
A|------------------------99---9---9p8h9--|
E|--4444444-00000000-4444-----------------|

G|----------|
D|----------| 
A|----------|
E|--0-0-2~--| 

  Bridge

G|----------------|
D|----------------| 
A|----------------|
E|--0-0-0~\12/0x--|

G|------------------------------------|
D|------------------------------------| (x2)
A|------------------------------------|
E|--00-0--00-0-00-0--22-2--22-2-44-4--|

G|------------------------------------|
D|------------------------------66-6--| (x2)
A|--77-7--77-7-77-7--99-9--99-9-------|
E|------------------------------------|

G|--------------------------|
D|--------------------------| 
A|--------------------------|
E|--00-0x--00-0-00-0--00-0--|


  Chorus
  "Why wait for you to come home....." 

G|-------------------------------------------------------------|
D|-------------------------------------------------------------| 
A|--2222-22-222-22----------------2222-22-222-22--77777-99999--|
E|-----------------0000-00-000-00------------------------------|

G|------------------------------11--------|
D|---------------------------9------------| 
A|------------------------99---9---9p8h9--|
E|--4444444-00000000-4444-----------------|

G|----------|
D|----------| 
A|----------|
E|--0-0-2~--| 

  Chorus Variation
  "Why wait for you to come home....." 

G|------------------------------------------------------------|
D|------------------------------------------------------------| 
A|--22222222222222-77777777777777-22222222222222-77777-99999--|
E|------------------------------------------------------------|

G|------------------------------11--------|
D|---------------------------9------------| 
A|------------------------99---9---9p8h9--|
E|--4444444-00000000-4444-----------------|

G|----------|
D|----------| 
A|----------|
E|--0-0-2~--| 

  Post-Chorus

G|-------------------------------------|
D|-------------------------------------| (x4)
A|-------------------------------------|
E|--444-44-666-66777-77-000-00-222-22--|

  End

G|-----------|
D|-----------| 
A|-----------|
E|--444-44x--|







5. WE EXIST
   
   Tuning: EADG

  Intro

G|--2-0-2-4-5-4-2-0--|
D|-------------------|
A|-------------------|
E|-------------------|

  Verse
  "Cannot fight this feeling......"

G|-------------------------------------------------------------------------| 
D|--3333333333333333-------------------------------------------------------| 
A|-------------------33333333---------------------------33333333-----------| 
E|----------------------------33333333-1111111111111111----------33333333--| 

G|-----------------------------------------------------------------| 
D|--3333333333333333-----------------------------------------------| 
A|-------------------33333333--------------------------------------| 
E|----------------------------33333333-1111111111111111-33333333x--| 

  Chorus
  "So it seems I pray....."

G|----------------------5------5---5----------------------------------------| 
D|-----------------------------------------------------333333333-532--------| 
A|-------------------333--3333--3-3-3-5555-5555-55-555--------------532-----| 
E|--5555-5555-55-555---------------------------------------------------532--| 

G|--------------------------------------------------------------------------| 
D|---------------------------------------------------------------555555555--| 
A|-------------------3333-3333-33-333-5555-5555-55-555-888888888------------| 
E|--5555-5555-55-555--------------------------------------------------------| 

  Post-chorus

G|--2-0-2-4-5-4-2-0---0-9-0-7-0-5-0-2-0--2-0-2-4-5-4-2-0------5~---7~--| 
D|------------------3--------------------------------------33---55-----| (x2)
A|---------------------------------------------------------------------| 
E|---------------------------------------------------------------------| 

  Verse
  "Broken wings and burden..."

G|-----------------------------------------------------------| 
D|--3~-----------------------33333354------------------------| 
A|-----33333333----------------------542--33333333-----------| 
E|--------------33333333-1111-----------1----------33333333--| 

G|-----------------------------------------------------------------| 
D|--3333333333333333-----------------------------------------------| 
A|-------------------33333333--------------------------------------| 
E|----------------------------33333333-1111111111111111-33333333x--| 

  Chorus
  "So it seems I pray....."

G|--------------------------------------------------------------------------| 
D|-----------------------------------------------------333333333-532--------| 
A|--------77---------3333-3333-33-333-5555-5555-55-555--------------532-----| 
E|--5555-5--5-55-555---------------------------------------------------532--| 

G|--------------------------------------------------------------------------| 
D|---------------------------------------------------------8710--555555555--| 
A|-------------------3333-3333-33-333-5555-5555-55-555-8888----8------------| 
E|--5555-5555-55-555--------------------------------------------------------|

  Bridge

G|------------|
D|------------| (x2)
A|--3-2-------|
E|------3-5x--|

G|--5-4-------|
D|------5-7x--| 
A|------------|
E|------------|

G|------------|
D|------------| 
A|--3-2-------|
E|------3-5x--|

G|--5-4-0-2-------------|
D|----------------------| (x3)
A|--------------333-----|
E|----------111-----333-|

G|--5-4-0-2-----------------------|
D|--------------------------------| 
A|--------------------------------|
E|----------111-3333333333333\12--|

  Chorus
  "So it seems I pray....."

G|----------------------------543-------------------------------------------| 
D|-------------------------------542-------------------333333333-532--------| 
A|-------------------333333333------3-5555555555555555--------------532-----| 
E|--5555555555555555---------------------------------------------------532--| 

G|-----------------------------------------------------------------------------| 
D|---------------------------------------------------------------555555555\12--| 
A|-------------------3333-3333-33-333-5555-5555-55-555-888888888---------------| 
E|--5555-5555-55-555-----------------------------------------------------------|

  Post-Chorus

G|--5-4-0-2-------------|
D|----------------------| (x2)
A|--------------333-----|
E|----------111-----333-|

  End

G|--5-4-0-2x--|
D|------------| 
A|------------|
E|------------|







6. FOLLOW ME
   
   Tuning: EADG

  Verse
  "You're all I see..."

G|--------------------------------------------------------------------------------------|
D|--------------------------------------------------------------------------------------| (x2)
A|--33-333-33-333-33-333-33-222---------------------------------------------------------|
E|------------------------------55-555-55-555-55-555-55-555-11-111-11-111-33-333-33-333-|

G|---------------------------|
D|---------------------------|
A|---------------------------|
E|--5~-----3~-----1~-----3x--|

G|-----------------------------------------------------------------|
D|-----------------------------------------------------------------|
A|-------------------------333x------------------------------------|
E|--555x---111x-333x-555x-------333x-555x---111x-333x-555x---333x--|

  Verse
  "Inside my heart...."

G|-----------------------------------------------------------------------|
D|-----------------------------------------------------------------------|
A|--333x---333x-333x-333x---333x-222x------------------------------------|
E|------------------------------------555x---555x-555x-555x---555x-555x--|

G|-------------------------------------|
D|-------------------------------------|
A|-------------------------------------|
E|--111x---111x-111x-333x---333x-333x--|

G|-----------------------------------------------------------------------|
D|-----------------------------------------------------------------------|
A|--333x---333x-333x-333x---333x-222x------------------------------------|
E|------------------------------------555x---555x-555x-555x---555x-555x--|

G|-------------------------------------|
D|-------------------------------------|
A|-------------------------------------|
E|--111x---111x-111x-333x---33333xxxx--|

  Chorus
  "So come home with me tonight...."

G|---------------------------3-----------------------------------------------------------|
D|-------------------------35-------------------------------------------------------35---|
A|------------------------3----33-33----------------------------------33333333-----5-----|
E|--5555-55-55-1111-11-11------------3333-33-33-5555-5-555-1111-1-111----------3333---3--|

  Outro

G|---------------------------------------------|
D|---------------------------------------------|
A|-----------------33x----------------33x------|
E|--11x--33x--55x-------11x--33x--55x------1~--|

G|--------------------------------|
D|--------------------------------|
A|--------------------------------|
E|--555x---111x-333x-555x---333x--|

  Verse
  "Somethings strange......"

G|---------------------------------------------------------|
D|--------------------------------77777777777777777777777--|
A|--33333333333333333333-33332222--------------------------|
E|---------------------------------------------------------|

G|------------------------------------|
D|------------------------------------|
A|-------------3--3-3-----------------|
E|--11111111-11-11-1--33333333333333--|

G|---------------------------------------------------------|
D|--------------------------------77777777777777777777777--|
A|--33333333333333333333-33332222--------------------------|
E|---------------------------------------------------------|

G|---------7-------------------------|
D|-------98----------5555555555xxxx--|
A|--88888---888888-------------------|
E|-----------------------------------|

  Chorus
  "So come home with me tonight...."

G|---------------------------------------------------------------------------------------|
D|---------------------------------------------------------------------------------------|
A|------------------------3333-33-33----------------------------------33333333------57---|
E|--5555-55-55-1111-11-11------------3333-33-33-5555-5-555-1111-1-111----------33333--3--|

  Outro

G|-----------------------------------------|
D|-----------------------------------------|
A|-----------------33x----------------33x--|
E|--11x--33x--55x-------11x--33x--55x------|

  Bridge

G|-------------------------------------------------------------------------|
D|-------------------------------------------------------------------------|
A|---------------------------------------------------------33\5555\777777--|
E|--11111111111111-33333333333333-555555555555555555555555-----------------|

G|---------------------------------------------|
D|---------------------------------------------|
A|--------------------------------5555\777777--|
E|--11111111111111-33333333333333--------------|

G|------------------------------------------------------------|
D|------------------------------------------------------------|
A|-------7--7---------------------------------3\77777777xxxx--|
E|--55-55-55-55-5-555-5-555-5-11111111-333333-----------------|

  Chorus
  "So come home with me tonight...."

G|----------------------------------------------------------------------75---------------|
D|------------------------------------------------------------------------73-------------|
A|------------------------3333-33-33---45-------------------------------33----33---------|
E|--5555-55-55-1111-11-11------------33---33-33-5555-5-555-1111-1-111----------33333333--|

  Outro

G|-----------------------------------------------|
D|-----------------------------------------------|
A|--------------------33x-------------------33x--|
E|--11x--33\12x--55x-------11x--33\12x--55x------|

G|-------------------------------------------|
D|----------------------2--2--2---5--5--5----|
A|--3--3--3---5--5--5----00-00-00--33-33-33--|
E|---11-11-11--33-33-33----------------------|

G|-------------|
D|-------------|
A|-------------|
E|--1~-----3~--|

G|----------------------------------------------------------|
D|----------------------------------------------------------|
A|-------------------------333x-----------------------------|
E|--555x---111x-333x-555x-------333x-555x---111x-333x-555x--|

  End

G|------|
D|------|
A|------|
E|--1~--|








7. CONTROL
   
   Tuning: DADG

  Intro

G|-------------|
D|-------------| 
A|--5~-\12/5x--| 
D|-------------|

G|--------------------------------------------------------|
D|--0-0-0--2-4-2--0-0-0-0-0----0-0-0--2-4-2--0-0-0-0-0----| (x3)
A|--------------------------4--------------------------4--| 
D|--------------------------------------------------------|

G|--7-7-7--9-11-9--7-7-7-7-7-----7-7-7--9-11-9--7-7-7-7-7-----|
D|---------------------------11---------------------------11--| 
A|------------------------------------------------------------|
D|------------------------------------------------------------|

G|--------------------------------------------------------|
D|--0-0-0--2-4-2--0-0-0-0-0----0-0-0--2-4-2--0-0-0-0-0----| 
A|--------------------------4--------------------------4--| 
D|--------------------------------------------------------|

  Verse
  "If I could...."

G|----------------------------------------------|
D|----------------------------------------------| (x2)
A|----------------------------------------------| 
D|--999-7-9999999999-7-9999-7-99-7-555-4-55555--|

G|-------------------------|
D|-------------------------| 
A|-------------222-222-22--| 
D|--555-555-55-------------|

  Chorus
  "You control, by your own design....."

G|-----------------------------------------------|
D|-----------------------------------------------| 
A|--------------------------------222-444-555xx--| 
D|--000-000-0-00-00-5555-55-555-5----------------|

G|----------------------------------------------|
D|----------------------------------------------| 
A|----------------------------------------------| 
D|--000-000-0-00-00-5555-55-555-5-99-77-555555--|

G|-------|
D|-------| 
A|--2\x--| 
D|-------|

  Verse
  "Patience is gone,but you
Добавлено: 28.08.2013
Другие материалы по этой песне:
  • Аккорды и текст

Страница создана 28.08.2013
http://primanota.ru/rufio/mcmlxxxv-1985-chords.htm
Привет, Гость.
Предлагаем пройти революционный курс по гитаре.
Подарок от PrimaNota.Ru, забирай!