PrimaNota.ru - самый крупный в мире бесплатный архив песенных текстов, аккордов, табулатур и нот


Rue Royale - Lunacy - таба, видео

Регистрация Запомнить меня
Войти через:  Facebook Google Twitter Vk Yandex Mail.ru

Rue Royale - Lunacy - таба, видео

Печатать
Просмотров: 64
-------------------------------------------------------------------------------
                             SONG NAME - Band Name
-------------------------------------------------------------------------------
Tabbed by: feralfido
E-mail:

Tuning: Halfstep down

This is my first tab.  Let me know if you can improve on it, but this is the jest of it.
The first part continues throughout the whole song.

eb|---------------------------------------------------------------------------|
Bb|----0--------0---------0--------0------------------------------------------|
Gb|---------0--------0---------0-------0-----0--------0-----0--------0--------|
Db|-----------------------------------------------2-------2------2-------2----|
Ab|----3--3---3---3---3-------------------------------------------------------|
Eb|-----------------------5--5---5---5---5---0--0---0---0---0--0---0---0------|
   (Is it Lunacy_______________________      to believe)
When the bridge is played, end the last bar with this, and on the second time, start 
back on the 2nd string fifth fret section

eb|----------------------------------------------------------------------------|
Bb|-----------------------------------0--------0-------0--------0--------------|
Gb|----------------------------------------0-------0--------0-------0----------|
Db|----2---2---2---2---2---2---2---2-------------------------------------------|
Ab|-----------------------------------5--5---5---5-----4--4---4---4------------|
Eb|--0---0---0---0---0---0---0---0---------------------------------------------|

eb|--------------------------------------------------------------------------|
Bb|--0--------0-----0--------0-----------------------------------------------|
Gb|-------0-------0------0-------0-------------------------------------------|
Db|--------------------------------------------------------------------------|    X2
Ab|--3--3---3---3---3--3---3---3---------------------------------------------|
Eb|--------------------------------------------------------------------------|

Then start back at the beginning until another bridge

************************************

| /   slide up
| \   slide down
| h   hammer-on
| p   pull-off
| ~   vibrato
| +   harmonic
| x   Mute note
| b   Bend
| pb  Pre-bend
| br  Bend release
| pbr Pre-bend release
| brb Bend release bend

************************************
Добавлено: 01.01.2016
Другие материалы по этой песне:
  • Аккорды и текст

Страница создана 01.01.2016
http://primanota.ru/rue-royale/lunacy-chords.htm
Привет, Гость.
Предлагаем пройти революционный курс по гитаре.
Подарок от PrimaNota.Ru, забирай!