PrimaNota.ru - самый крупный в мире бесплатный архив песенных текстов, аккордов, табулатур и нот


Rue Royale - Get Me Standing - таба, видео

Регистрация Запомнить меня
Войти через:  Facebook Google Twitter Vk Yandex Mail.ru

Rue Royale - Get Me Standing - таба, видео

Печатать
Просмотров: 100
------------------------- Rue Royale ----------------------------------------
------------------------ Get Me Standing ------------------------------------


Tabbed By: Diêgo Palmeira


--> (Capo on 1) <--

Intro/Verse:
E|-----------------------------|
B|-0----0----0----0----0-------|
G|-0----0----0----0----0-------|
D|-0----0----0----0----0-------|
A|-----------------------------|
E|-8----7----5----0----3-------|


Chorus:

E|-----------------------------|
B|-0----0----0----0----0-------|
G|-0----0----0----0----0-------|
D|-0----0----0----0----0-------|
A|-----------------------------|
E|-8----7----5----0----3-------|


Outro:

E|-----------------------------|
B|-----------------------------|
G|-----------------------------|
D|-0---0---0-------------------|
A|-----------------------------|
E|-0---0---0-------------------|
Добавлено: 07.12.2013
Другие материалы по этой песне:
  • Аккорды и текст

Страница создана 26.06.2013
http://primanota.ru/rue-royale/get-me-standing-chords.htm
Привет, Гость.
Предлагаем пройти революционный курс по гитаре.
Подарок от PrimaNota.Ru, забирай!