PrimaNota.ru - самый крупный в мире бесплатный архив песенных текстов, аккордов, табулатур и нот


Rudy + Blitz - Shes So Brown - таба, видео

Регистрация Запомнить меня
Войти через:  Facebook Google Twitter Vk Yandex Mail.ru

Rudy + Blitz - Shes So Brown - таба, видео

Печатать
Просмотров: 30
Author/Artist: Rudy + Blitz
Title: She's so Brown
Album: reverb on the click
Transcribed by: Colin Kemege
Email: socksandspoons@hotmail.com


tuning: Eb

-|---0-|----4--------7------11---------------11-------7------------------12---|
-|-4---|--5---5---/7--7-/11----11-/11-9-9-11----11-\7---7-/-14-----14---------|
-|-----|-------------------------------------------------------11------9------|
-|-----|----------------------------------------------------------------------|
-|-----|----------------------------------------------------------------------|
-|-----|----------------------------------------------------------------------|
   x10    INTRO/RIFF1

-|-------------------------|------|-------------|-----------------------|-----|
-|-------------------------|------|-------------|-----------------------|-----|
-|--------5555--------7777-|------|-------5555--|--5-------7------------|-7---|
-|--2222--5555--5555--7777-|-5-5--|-7777--5555--|--5-55-55-7-77-77-3333-|-7-7-|
-|--2222--3333--5555--5555-|-5-5--|-7777--3333--|--3-55-55-5-77-77-3333-|-5-7-|
-|--0000--------3333-------|-3-3--|-5555--------|----33-33---55-55-1111-|---5-|
     VERSES   x?      then this^   CHORUS PT1 x?  CHORUS PT2  x2   ^x2

-|----4------7--------11---------------11--------5--------2----4444-----------|
-|--5---5-/7---7--/11----11-/11-9-9-11----11-\-5---5-\--2---2-----------------|
-|----------------------------------------------------------------------------|
-|----------------------------------------------------------------------------|
-|----------------------------------------------------------------------------|
-|----------------------------------------------------------------------------|
     RIFF 1 Variation   (then verse then chorus') then:

-|--------------------------------9-6\4-2-------------------------------------|
-|--/-11---11--9----------/9b11----------4-7--9-------9-------9---------------|
-|------11------11-8----------------------------11/13---11/13---11/13vvv------|
-|-------------------11-------------------------------------------------------|
-|----------------------------------------------------------------------------|
-|----------------------------------------------------------------------------|
   SOLO

-|-------9--------4-|-2/4vvv-4vvv-|--9-/11\9--\\\\|---------------------------|
-|--/11----9-7\4----|-------------|---------------|----7/9-9---9b11r9-/7----7-|
-|------------------|-------------|---------------|--8-------------------8----|
-|------------------|-------------|---------------|---------------------------|
-|------------------|-------------|---------------|---------------------------|
-|------------------|-------------|---------------|---------------------------|
                      gtr.1         gtr.2           (back to gtr.1)

-|-------------------------------14-16-14------|-------|---|---|---|---|-12---|
-|-9-9--9b11r9-/7--------------------------11--|-9/-11-|-11|-14|-16|-19|------|
-|---------------------6-8-6-------------------|-------|---|---|---|---|------|
-|-------------------8-------8-----------------|-------|---|---|---|---|------|
-|---------------------------------------------|-------|---|---|---|---|------|
-|---------------------------------------------|-------|---|---|---|---|------|
                                            gtr.1:      x4  x5  x5  x5  gtr2^

-|----------------------------------------------------------------------------|
-|----------------------------------------------------------------------------|
-|-11-11-11-11----------------------------------------------------------------|
-|----------------------------------------------------------------------------|
-|----------------------------------------------------------------------------|
-|----------------------------------------------------------------------------|
Добавлено: 29.05.2016
Другие материалы по этой песне:
  • Аккорды и текст

Страница создана 29.05.2016
http://primanota.ru/rudy-blitz/shes-so-brown-chords.htm
Привет, Гость.
Предлагаем пройти революционный курс по гитаре.
Подарок от PrimaNota.Ru, забирай!