PrimaNota.ru - самый крупный в мире бесплатный архив песенных текстов, аккордов, табулатур и нот


Rudy + Blitz - Abc - таба, видео

Регистрация Запомнить меня
Войти через:  Facebook Google Twitter Vk Yandex Mail.ru

Rudy + Blitz - Abc - таба, видео

Печатать
Просмотров: 29
ABC


============================================================================

Eb :----------------|----------------|----------------|----------------|
Bb :----------------|----------------|----------------|----------------|
Gb :----------------|----------------|----------------|----------------|  guitar
Db :6-------6-------|----------------|8-------8-------|----------------|
Ab :4-------4-------|6-------6-------|6-------6-------|6-------6-------|
Eb :----------------|4-------4-------|----------------|4-------4-------|

Gb :----------------|----------------|----------------|----------------|
Db :----------------|----------------|----------------|----------------|
Ab :4-------4-------|----------------|6-------6-------|----------------|  bass
Eb :----------------|4-------4-------|----------------|4-------4-------|

============================================================================

Eb :----------------|----------------|----------------|----------------|
Bb :----------------|----------------|----------------|----------------|
Gb :----------------|----------------|----------------|----------------|
Db :6-------6-------|----------------|8---8---8---8---|8-------8-------|
Ab :4-------4-------|6-------6-------|6---6---6---6---|6-------6-------|
Eb :----------------|4-------4-------|----------------|----------------|

Gb :----------------|----------------|----------------|----------------|
Db :----------------|----------------|----------------|----------------|
Ab :4-------4-------|----------------|6---6---6---6---|6-------6-------|
Eb :----------------|4-------4-------|----------------|----------------|

============================================================================

Eb :----------------|----------------|----------------|----------------|
Bb :----------------|----------------|----------------|----------------|
Gb :----------------|----------------|----------------|----------------|
Db :6-------6-------|----------------|8-------8-------|----------------|
Ab :4-------4-------|6-------6-------|6-------6-------|6-------6-------|
Eb :----------------|4-------4-------|----------------|4-------4-------|

Gb :----------------|----------------|----------------|----------------|
Db :----------------|----------------|----------------|----------------|
Ab :4-------4-------|----------------|6-------6-------|----------------|
Eb :----------------|4-------4-------|----------------|4-------4-------|

============================================================================

Eb :----------------|----------------|----------------|----------------|
Bb :----------------|----------------|----------------|----------------|
Gb :----------------|----------------|----------------|----------------|
Db :6-------6-------|----------------|8---8---8---8---|8-------8-------|
Ab :4-------4-------|6-------6-------|6---6---6---6---|6-------6-------|
Eb :----------------|4-------4-------|----------------|----------------|

Gb :----------------|----------------|----------------|----------------|
Db :----------------|----------------|----------------|----------------|
Ab :4-------4-------|----------------|6---6---6---6---|6-------6-------|
Eb :----------------|4-------4-------|----------------|----------------|

============================================================================

Eb :----------------|----------------|----------------|----------------|
Bb :----------------|----------------|----------------|----------------|
Gb :----------------|----------------|----------------|----------------|
Db :6-------6-------|----------------|8-------8-------|----------------|
Ab :4-------4-------|6-------6-------|6-------6-------|6-------6-------|
Eb :----------------|4-------4-------|----------------|4-------4-------|

Gb :----------------|----------------|----------------|----------------|
Db :----------------|----------------|----------------|----------------|
Ab :4-------4-------|----------------|6-------6-------|----------------|
Eb :----------------|4-------4-------|----------------|4-------4-------|

============================================================================

Eb :----------------|----------------|----------------|----------------|
Bb :----------------|----------------|----------------|----------------|
Gb :----------------|----------------|----------------|----------------|
Db :6-------6-------|----------------|8---8---8---8---|8-------8-------|
Ab :4-------4-------|6-------6-------|6---6---6---6---|6-------6-------|
Eb :----------------|4-------4-------|----------------|----------------|

Gb :----------------|----------------|----------------|----------------|
Db :----------------|----------------|----------------|----------------|
Ab :4-------4-------|----------------|6---6---6---6---|6-------6-------|
Eb :----------------|4-------4-------|----------------|----------------|

============================================================================

Eb :----------------|----------------|----------------|----------------|
Bb :----------------|----------------|----------------|----------------|
Gb :----------------|----------------|----------------|----------------|
Db :----------------|----------------|----------------|----------------|
Ab :*---------------|----------------|----------------|----------------|
Eb :----------------|----------------|----------------|----------------|

Gb :----------------|----------------|----------------|----------------|
Db :----------------|----------------|----------------|----------------|
Ab :4-------4-------|----------------|6-------6-------|----------------|
Eb :----------------|4-------4-------|----------------|4-------4-------|

============================================================================

Eb :----------------|----------------|----------------|----------------|
Bb :----------------|----------------|----------------|----------------|
Gb :----------------|----------------|----------------|----------------|
Db :----------------|----------------|----------------|----------------|
Ab :----------------|----------------|----------------|----------------|
Eb :----------------|----------------|----------------|----------------|

Gb :----------------|----------------|----------------|----------------|
Db :----------------|----------------|----------------|----------------|
Ab :4-------4-------|----------------|6---6---6---6---|6-------6-------|
Eb :----------------|4-------4-------|----------------|----------------|

============================================================================

Eb :----------------|----------------|----------------|----------------|
Bb :----------------|----------------|----------------|----------------|
Gb :----------------|----------------|----------------|----------------|
Db :6-------6-------|----------------|8-------8-------|----------------|
Ab :4-------4-------|6-------6-------|6-------6-------|6-------6-------|
Eb :----------------|4-------4-------|----------------|4-------4-------|

Gb :----------------|----------------|----------------|----------------|
Db :----------------|----------------|----------------|----------------|
Ab :4-------4-------|----------------|6-------6-------|----------------|
Eb :----------------|4-------4-------|----------------|4-------4-------|

============================================================================

Eb :----------------|----------------|----------------|----------------|
Bb :----------------|----------------|----------------|----------------|
Gb :----------------|----------------|----------------|----------------|
Db :6-------6-------|----------------|8---8---8---8---|8-------8-------|
Ab :4-------4-------|6-------6-------|6---6---6---6---|6-------6-------|
Eb :----------------|4-------4-------|----------------|----------------|

Gb :----------------|----------------|----------------|----------------|
Db :----------------|----------------|----------------|----------------|
Ab :4-------4-------|----------------|6---6---6---6---|6-------6-------|
Eb :----------------|4-------4-------|----------------|----------------|

============================================================================
     slow down to Stand REM cover
Eb :----------------|-------------------|-------------------|
Bb :----------------|-------------------|-------------------|
Gb :----------------|-------------------|-------------------|
Db :----------------|-------------------|-------------------|
Ab :6---------------|6---6---11x11-x-13-|--x-13---11---11---|
Eb :4---------------|4---4----9x-9-x-11-|--x-11----9----9---|

Gb :----------------|-------------------|-------------------|
Db :----------------|-------------------|-------------------|
Ab :----------------|-------------------|-------------------|
Eb :4---------------|4---4----9x-9-x-11-|--x-11----9----9---|

============================================================================

Eb :------------------|------------------------|---------------------|
Bb :------------------|------------------------|---------------------|
Gb :------------------|------------------------|---------------------|
Db :------------------|------------------------|---------------------|
Ab :6---6---11x11-x-8-|----8---8-8-----8-------|6---6---11x11-x---13-|
Eb :4---4----9x-9-x-6-|----6---6-6-----6-------|4---4----9x-9-x---11-|

Gb :------------------|------------------------|---------------------|
Db :------------------|----------6-h8-p6-------|---------------------|
Ab :------------------|------------------h8-p6-|---------------------|
Eb :4---4----9x-9-x-6-|----6---6---------------|4---4----9x-9-x9-/11-|

============================================================================

Eb :--------------------|------------------|----------------|
Bb :--------------------|------------------|----------------|
Gb :--------------------|------------------|----------------|
Db :--------------------|------------------|----------------|
Ab :---x-13---11---11---|6---6---11x11-x-8-|----8---8-8-8---|
Eb :---x-11----9----9---|4---4----9x-9-x-6-|----6---6-6-6---|

Gb :--------------------|------------------|----------------|
Db :--------------------|------------------|----------------|
Ab :--------------------|------------------|----------------|
Eb :11-x-11----9----9---|4---4----9x-9-x-6-|----6---6-6-6---|

============================================================================

Eb :----------------|----------------|----------------|
Bb :----------------|----------------|----------------|
Gb :----------------|----------------|----------------|
Db :----------------|----------------|----------------|
Ab :6---------------|--------6-------|----------------|
Eb :4---------------|--------4-------|*---------------|

Gb :----------------|----------------|----------------|
Db :----------------|----------------|----------------|
Ab :----------------|----------------|----------------|
Eb :4---------------|--------4-------|*---------------|
Добавлено: 29.05.2016
Другие материалы по этой песне:
  • Аккорды и текст

Страница создана 29.05.2016
http://primanota.ru/rudy-blitz/abc-chords.htm
Привет, Гость.
Предлагаем пройти революционный курс по гитаре.
Подарок от PrimaNota.Ru, забирай!