PrimaNota.ru - самый крупный в мире бесплатный архив песенных текстов, аккордов, табулатур и нот


Rudimental - Neednt Speak - аккорды и текст, видео

Регистрация Запомнить меня
Войти через:  Facebook Google Twitter Vk Yandex Mail.ru

Rudimental - Neednt Speak - аккорды и текст, видео

Печатать
Просмотров: 78
Neednt Speak
Rudimental
Rudimental - Needn't Speak feat. Lianne La Havas

One of my favorites off this album.
This is my first submitted tab, so if you find any corrections or additions that should be, please comment!

Standard tuning - EADGBE

Chords:
Em - x79987
C7M   - x35453
Am7 - x02010
D9* - x545xx (sorry if name is incorrect, not sure what it'd be called without the E)

Chords played by picking bass note twice then the higher notes twice as heard
on the track, but chords could be plucked/strummed as one if preferred.

Intro:

Em C7M   Am7 D9 x4


Verse 1

Em          C7M           Am7        D9
I broke you down but your heart was sore

           Em         C7M            Am7        D9
It's gonna take much more to get you off that floor

Em         C7M             Am7            D9
We needn't speak, look how hard we've cried

       Em         C7M             Am7      D9
Had to beat that pride to get you off my mind


Chorus

Em             C7M            Am7            D9
Baby don't you worry, I don't know where to start

         Em            C7M          Am7           D9
Should I listen to the voices in my brain or my heart?

  Em          C7M     Am7   D9
I must find a way to say
          Em              C7M  
that when all is said and done
              Am7          D9
I hope you're happy that way


E-----------------------------------------------||
B-----------------------------------------------||
G---4-0-2-0----------4-0-2-0-------0-2h4--------||
D-----------2-0-2------------2-0-2--------------||
A-----------------------------------------------||
E-----------------------------------------------|| x4
I just can't let go, go
I just can't let go, go


Verse 2

Em         C7M     Am7      D9
You let me go to a place unknown

         Em           C7M            Am7       D9
From the depths I've flown, so I was left to roam

Em          C7M       Am7       D9
Now you can see why I had to leave

         Em       C7M         Am7       D9
You were leaving me, I had to find my feet


Chorus

Em             C7M            Am7            D9
Baby don't you worry, I don't know where to start

         Em            C7M          Am7           D9
Should I listen to the voices in my brain or my heart?

  Em          C7M     Am7  D9
I must find a way to say

          Em              C7M  
that when all is said and done

              Am7          D9
I hope you're happy this way


E-----------------------------------------------||
B-----------------------------------------------||
G---4-0-2-0----------4-0-2-0-------0-2h4--------||
D-----------2-0-2------------2-0-2--------------||
A-----------------------------------------------||
E-----------------------------------------------|| x7

E-------------------||
B-------------------||
G---4-0-2-0---------||
D-----------2-0-2---||
A-------------------||
E-------------------||
I just can't let go, go
I just can't let go, go
I just can't let go, go
I just can't let go, go

Drum Break

E-----------------------------------------------||
B-----------------------------------------------||
G---4-0-2-0----------4-0-2-0-------0-2h4--------||
D-----------2-0-2------------2-0-2--------------||
A-----------------------------------------------||
E-----------------------------------------------|| x8

Outro:

Em C7M   Am7 D9 x4
Добавлено: 24.02.2016
Другие материалы по этой песне:
  • Аккорды и текст

Страница создана 24.02.2016
http://primanota.ru/rudimental/neednt-speak-chords.htm
Привет, Гость.
Предлагаем пройти революционный курс по гитаре.
Подарок от PrimaNota.Ru, забирай!