PrimaNota.ru - самый крупный в мире бесплатный архив песенных текстов, аккордов, табулатур и нот


rudi - Big Time - аккорды и текст, видео

Регистрация Запомнить меня
Войти через:  Facebook Google Twitter Vk Yandex Mail.ru

rudi - Big Time - аккорды и текст, видео

Печатать
Просмотров: 66
Авторы музыки: Rudi

Big Time
rudi
e|---------------------------------------------------------------------------|
B|---------------------------------------------------------------------------|
G|---------------------------------------------------------------------------|
D|------12b---------12b--------12b-------12b-------12b-----------------------| x2
A|10-10-----10-10------10-10------10-10-----10-10-----10-10------------------|
E|10-10-----10-10------10-10------10-10-----10-10-----10-10------------------|

e|---------------------------------------------------------------------------|
B|---------------------------------------------------------------------------|
G|---------------------------------------------------------------------------|
D|12b-~----------------------------------------------------------------------|
A|10--~----------------------------------------------------------------------|
E|10--~----------------------------------------------------------------------|

Verse
e|---------------------|
B|---------------------|
G|----------2--0-------|
D|--0-2-0-0------4-0---|
A|0--------------------|
E|---------------------|

Intro

D A G A

Verse
    D          A       G   A D A G A
You drive your daddy's car
        D        A       G   A D A G A
But you drove us all too far
       D      A    G       A D A G A
You've got so many friends
            D       A      G    A
But they'll see you in the end

Chorus
D   A         G                  A
Big time, you ain't no friend of mine
D   A         G                  A
Big time, you ain't no friend of mine
D   A         G                  A
Big time, you ain't no friend of mine
D   A         G                  A
Big time, you ain't no friend of mine
Добавлено: 05.06.2016
Вам также может быть интересно:
Другие материалы по этой песне:
  • Аккорды и текст

Страница создана 05.06.2016
http://primanota.ru/rudi/big-time-chords.htm
Привет, Гость.
Предлагаем пройти революционный курс по гитаре.
Подарок от PrimaNota.Ru, забирай!