PrimaNota.ru - самый крупный в мире бесплатный архив песенных текстов, аккордов, табулатур и нот


Ruben Pichel - Toxicated - таба

Регистрация Запомнить меня
Войти через:  Facebook Google Twitter Vk Yandex Mail.ru

Ruben Pichel - Toxicated - таба

Печатать
Просмотров: 57
-------------------------------------------------------------------------------
                            Toxicated - Ruben Pichel
-------------------------------------------------------------------------------
Tabbed by: Ruben Pichel

Tuning:C G c G B e

P=pulloff H=hammer-on S=slide

Intro
e|---------------------------------------------------------------------------|
B|---------------------------------------------------------------------------|
G|12P0---12P0---12P0---12P0---12P0---0-13P0---13P0---10P0---10p0---10P0-13P0-|
C|-----0------0------0------0------0--------0------0------0------0-----------|
G|---------------------------------------------------------------------------|
C|---------------------------------------------------------------------------|

e|---------------------------------------------------------------------------|
B|---------------------------------------------------------------------------|
G|12P0---12P0---12P0---12P0---12P0---0-13P0---13P0---10P0---10P0---10P0---0--|
C|-----0------0------0------0------0--------0------0------0------0------0----|
G|---------------------------------------------------------------------------|
C|---------------------------------------------------------------------------|

e|---------------------------------------------------------------------------|
B|---------------------------------------------------------------------------|
G|9P0---9P0---9P0---9P0---9P0---0-10P0---10P0---7P0---7P0---7P0-10P0---------|
C|----0-----0-----0-----0-----0--------0------0-----0-----0------------------|
G|---------------------------------------------------------------------------|
C|---------------------------------------------------------------------------|

e|---------------------------------------------------------------------------|
B|---------------------------------------------------------------------------|
G|9P0---9p0---9P0---9P0---9P0---0-13P0---13P0---15P0---15P0---15P0-----------|
C|----0-----0-----0-----0-----0--------0------0------0------0----------------|
G|---------------------------------------------------------------------------|
C|---------------------------------------------------------------------------|

Main Riff
e|---------------------------------------------------------------------------|
B|---------------------------------------------------------------------------|
G|---------------------------------------------------------------------------|
C|---------------------------------------------------------------------------| 4x
G|----13---12-----13---10-----10S12-12-12------------------------------------|
C|0-0-13-0-12-0-0-13-0-10-0-0-10S12-12-12------------------------------------|

Verse Riff (palm mute)
e|----------------------------------------    ---------- --------------------|
B|----------------------------------------    -------------------------------|
G|---------------------------------------- 4x -------------------------------|
C|----------------------------------------    3-------2---1------------------|
G|----------------------------------------    3-------2---1------------------|
C|0-0-13-0-12-0-0-13-0-10-0-0-10-12-12-12-    3-------2---1------------------| \
                                                                                2X
e|----------------------------------------    ---------- --------------------|
B|----------------------------------------    -------------------------------| /
G|---------------------------------------- 4x -------------------------------|
C|----------------------------------------    5-------8---11-----------------|
G|----------------------------------------    5-------8---11-----------------|
C|0-0-13-0-12-0-0-13-0-10-0-0-10-12-12-12-    5-------8---11-----------------|


Bridge riff
e|---------------------------------------------------------------------------|
B|---------------------------------------------------------------------------|
G|---------------------------------------------------------------------------|
C|---------------------------------------------------------------------------| 4x
G|---------------------------------------------------------------------------|
C|0-13-12-0-13-10-0-13-12-0-10-0-13-12-12------------------------------------|


Добавлено: 24.06.2016
Другие материалы по этой песне:
  • Аккорды и текст

Страница создана 24.06.2016
http://primanota.ru/ruben-pichel/toxicated-chords.htm
Привет, Гость.
Предлагаем пройти революционный курс по гитаре.
Подарок от PrimaNota.Ru, забирай!