PrimaNota.ru - самый крупный в мире бесплатный архив песенных текстов, аккордов, табулатур и нот


Rubblebucket - My Life - таба, видео

Регистрация Запомнить меня
Войти через:  Facebook Google Twitter Vk Yandex Mail.ru

Rubblebucket - My Life - таба, видео

Печатать
Просмотров: 67
-------------------------------------------------------------------------------
                My Life - Rubblebucket
-------------------------------------------------------------------------------
Tabbed by:cklug123
E-mail:cklug123@terpmail.umd.edu

Tuning:EADGBe
This song can be played basically anyway you want to but here is how I play it

beginning
e|---------------------------------------------------------------------------|
B|---------------------------------------------------------------------------|
G|---------------------------------------------------------------------------|
D|---------------------------------------------------------------------------|
A|-5-5-05---05--05--050-5-5-05---05--05--050-5-5-05---05--05--050------------|
E|---------------------------------------------------------------------------|

e|-----------------------------------------------------------------------------|
B|--12---10----10*-----12---10-----10*-----12---10-----10*-----12---10-----10*-|
G|------------11*-----------------11*-----------------11*-----------------11*--|
D|-----------------------------------------------------------------------------|
A|-----------------------------------------------------------------------------|
E|-----------------------------------------------------------------------------|
*let ring

or you could do this
e|---------------------------------------------------------------------------|
B|--12---10----s7s10-----12---10-----s7s10-----12---10-----s7s10-------------|
G|---------------------------------------------------------------------------|
D|---------------------------------------------------------------------------|
A|---------------------------------------------------------------------------|
E|---------------------------------------------------------------------------|
or a combination

trumpet
e|---------------------------------------------------------------------------|
B|-15---12p10----12---10p7---10---7p5-3--------------------------------------|
G|------------11-----------9------------4--------4-4-------------------------|
D|---------------------------------------------------------------------------|
A|---------------------------------------------------------------------------|
E|---------------------------------------------------------------------------|

Chorus
e|---------------------------------------------------------------------------|
B|-------------------------------------5-------------------------------------|
G|-------------4----------4-4---4----7---7-4-7-4---4-------------------------|
D|-------4-7-7----4--4--------7------------------7---------------------------|
A|-5--5----------------------------------------------------------------------|
E|---------------------------------------------------------------------------|
some times they leave off last note or two listen carefully

Solo (first bend goes from 10 up a whole note, the rest maybe just a quarter note)
e|---------------------------------------------------------------------------|
B|-----------------------------------------10--------------------------------|
G|--10b11-10b11-10b11-10b11---10b11b10-7-7----11-----------7-8---------------|
D|---------------------------------------------------------------------------|
A|---------------------------------------------------------------------------|
E|---------------------------------------------------------------------------|
Добавлено: 21.06.2015
Вам также может быть интересно:
Другие материалы по этой песне:
  • Аккорды и текст

Страница создана 21.06.2015
http://primanota.ru/rubblebucket/my-life-chords.htm
Привет, Гость.
Предлагаем пройти революционный курс по гитаре.
Подарок от PrimaNota.Ru, забирай!