PrimaNota.ru - самый крупный в мире бесплатный архив песенных текстов, аккордов, табулатур и нот


Rubberslime - Keine Zeit - таба, видео

Регистрация Запомнить меня
Войти через:  Facebook Google Twitter Vk Yandex Mail.ru

Rubberslime - Keine Zeit - таба, видео

Печатать
Просмотров: 151
Уроки эстрадного вокала в Санкт-Петербурге
 Rubberslime - Keine Zeit



By: malle
Band: Rubberslime
Album: Rock'n'Roll Genossen



Intro:

------------------------------------------------------|
-7------------8---------------------------------------|
-7--(ca 14x)--7--(ca 14x)-----------------------------|
------------------------------------------------------|
------------------------------------------------------|
------------------------------------------------------|

(this two times)
---------------------|
---------------------|
---------------------|
--4h5----------------|
---------------------|

Verse:      D          G


and this in the background:


------------------------------------------------------|
-7------------8---------------------------------------|
-7--(ca 14x)--7--(ca 14x)-----------------------------|
------------------------------------------------------|
------------------------------------------------------|
------------------------------------------------------|

---------------------------------------------------|
-----------------------------3--3-3----------------|
----------------2--2-2---2---2--2-2----------------|
---2--2-2---2---2--2-2---2---0--0-0--4--4--4-------|
---2--2-2---2---0--0-3h4-0-----------4--4--4-------|
---0--0-3h4-0------------------------2--2--2-------|


-------------------------------------------|
-------------------------------------------|
--5-5-5-5-4-5-5-5--------------------------|
--5-5-5-5-4-5-5-5--------------------------|
--3-3-3-3-2-3-3-3---2h3p2h3p2h3p2h3--------|
-------------------------------------------|


the Verse is played two times

Refrain:


            D         A          F#        G   (4x)


Solo:

(the E-String is dropped down on D)
---------------------------------------------------------|
---------------------------------------------------------|
---------------------------------------------------------|
-----------------------------------------7---------------|
--------------0-0h2-0-2--2/5--5--5h7--5-7----------------|
-0-0--4-(5x)---------------------------------------------|


-10-10--12--10-10--14-------------------------------------|
-10-10--10--10-10--10---(10x------------------------------|
------------------------------12b-12--10h12p10----10------|
-----------------------------------------------12----12---|
----------------------------------------------------------|
----------------------------------------------------------|



Verse:


             D           G

---------------------------------------------------|
-----------------------------3--3-3----------------|
----------------2--2-2---2---2--2-2----------------|
---2--2-2---2---2--2-2---2---0--0-0--4--4--4-------|
---2--2-2---2---0--0-3h4-0-----------4--4--4-------|
---0--0-3h4-0------------------------2--2--2-------|


-------------------------------------------|
-------------------------------------------|
--5-5-5-5-4-5-5-5--------------------------|
--5-5-5-5-4-5-5-5--------------------------|
--3-3-3-3-2-3-3-3---2h3p2h3p2h3p2h3--------|
-------------------------------------------|


Refrain:


        D         A          F#        G

Bridge:


------------------------------------------------------|
-7------------8---------------------------------------|
-7--(ca 14x)--7--(ca 14x)-----------------------------|
------------------------------------------------------|
------------------------------------------------------|
------------------------------------------------------|


(this two times)
---------------------|
---------------------|
---------------------|
--4h5----------------|
---------------------|


---------------------------------------------------|
-----------------------------3--3-3----------------|
----------------2--2-2---2---2--2-2----------------|
---2--2-2---2---2--2-2---2---0--0-0--4--4--4-------|
---2--2-2---2---0--0-3h4-0-----------4--4--4-------|
---0--0-3h4-0------------------------2--2--2-------|


Refrain:


                  D         A          F#        G

the song ends with:


                      G   A   D



I'm very sure it's the right tab so i hope you enjoy it


Rubberslime rules!!!
Добавлено: 24.06.2012
Другие материалы по этой песне:
  • Аккорды и текст

Страница создана 24.06.2012
http://primanota.ru/rubberslime/keine-zeit-chords.htm
Привет, Гость.
Предлагаем пройти революционный курс по гитаре.
Подарок от PrimaNota.Ru, забирай!