PrimaNota.ru - самый крупный в мире бесплатный архив песенных текстов, аккордов, табулатур и нот


Rubber Lizard - Waves - таба, видео

Регистрация Запомнить меня
Войти через:  Facebook Google Twitter Vk Yandex Mail.ru

Rubber Lizard - Waves - таба, видео

Печатать
Просмотров: 41
-------------------------------------------------------------------------------
                             Waves - rubber Lizard
-------------------------------------------------------------------------------
Tabbed by: Mark Money Travis



e|---------------------------------------------------------------------------|
B|---------------------------------------------------------------------------|
G|-19-17----------19-17----------------------17-19------17-19----------------|
D|------19-17-19-------19-17-19---------17-19------17-19---------------------|
A|---------------------------------------------------------------------------|
E|---------------------------------------------------------------------------|

e|---------------------------------------------------------------------------|
B|---------------------------------------------------------------------------|
G|-19-17----------19-17---------------------17-19-----17-19------------------|
D|------19-17-19-------19-17-19--------17-19-----17-19-----------------------|
A|-----------------------------15-17-15--------------------------------------|
E|---------------------------------------------------------------------------|

(0:55)
e|---------------------------------------------------------------------------|
B|---------------------------------------------------------------------------|
G|---------------------------------------------------------------------------|
D|---------------------------------------------------------------------------|
A|-3-3--3-3-3---3\5-5--5-5-5--5\7-7--7-7-7--7/5-5--5-5-5---------------------|
E|---------------------------------------------------------------------------|

(1:50)
e|---------------------------------------------------------------------------|
B|-----------------------------------------17-17-17--------------------------|
G|-17-19-19-19-19-19-19-19--17-19-19-19-19-----------------------------------|
D|---------------------------------------------------------------------------|
A|---------------------------------------------------------------------------|
E|---------------------------------------------------------------------------|



************************************

| /   slide up
| \   slide down
| h   hammer-on
| p   pull-off
| ~   vibrato
| +   harmonic
| x   Mute note
| b   Bend
| pb  Pre-bend
| br  Bend release
| pbr Pre-bend release
| brb Bend release bend

************************************
Добавлено: 01.04.2016
Другие материалы по этой песне:
  • Аккорды и текст

Страница создана 31.03.2016
http://primanota.ru/rubber-lizard/waves-chords.htm
Привет, Гость.
Предлагаем пройти революционный курс по гитаре.
Подарок от PrimaNota.Ru, забирай!