PrimaNota.ru - самый крупный в мире бесплатный архив песенных текстов, аккордов, табулатур и нот


Rubber Lizard - Maps Take What You Need - таба, видео

Регистрация Запомнить меня
Войти через:  Facebook Google Twitter Vk Yandex Mail.ru

Rubber Lizard - Maps Take What You Need - таба, видео

Печатать
Просмотров: 36
-------------------------------------------------------------------------------
                             MAPS   - Rubber Lizard
-------------------------------------------------------------------------------
Tabbed by:Mark Money Travis



Intro
e|---------------------------------------------------------------------------|
B|--9~~~---9~~~--9------x10~~~----10----x10~~~--10--10-----------------------|
G|--9~~~---9~~~---9-9---x11~~~--11--11--x11~~~--11--11-----------------------|
D|--9~~~---9~~~---------x11~~~----------x11~~~--11--11-----------------------|
A|--7~~~---7~~~---------x9~~~-----------x9~~~~--9---9------------------------|
E|---------------------------------------------------------------------------|

Verses
e|---------------------------------------------------------------------------|
B|--9-9-9-9x-9-9-9-9-9-9~------------10-10-10-10-x-10-10-10-10-10-10~--------|
G|--9-9-9-9x-9-9-9-9-9--9~--X2-------11-11-11-11-x-11-11-11-11-11---11~---X2-|
D|--9-9-9-9x-9-9-9-9-9---9~----------11-11-11-11-x-11-11-11-11-11-----11~----|
A|--7-7-7-7x-7-7-7-7-7---------------9--9--9--9--x-9--9--9--9--9-------------|
E|---------------------------------------------------------------------------|

chorus 
e|---------------------------------------------------------------------------|
B|-------------10------------------------------------------------------------|
G|-6------8----9-----8-------------------------------------------------------|
D|-7------9----11----9-------------------------------------------------------|
A|-7------9----9-----9-------------------------------------------------------|
E|-5------7----------7-------------------------------------------------------|

(1:04)
e|---------------------------------------------------------------------------|
B|-------5-------------------------------------------------------------------|
G|-6--5--6-------------------------------------------------------------------|
D|-7--6--6-------------------------------------------------------------------|
A|-7--6--4-------------------------------------------------------------------|
E|-5--4----------------------------------------------------------------------|

(2:09)(3:18)
e|-x-----x-----x-------------------------------------------------------------|
B|-x-----x-----5-------------------------------------------------------------|
G|-8-----6-----6-------------------------------------------------------------|
D|-9-----7-----6-------------------------------------------------------------|
A|-9-----7-----4-------------------------------------------------------------|
E|-7-----5-----x-------------------------------------------------------------|


Bridge (2:28)
e|---------------------------------------------------------------------------|
B|---------------------------------------------------------------------------|
G|---------------------------------------------------------------------------|
D|-9-11-11-9-11-11-9-11-11/6-6-6-6/4-4-4-------------------------------------|
A|-0-0--0--0-0--0--0-0--0-/0-0-0-0/0-0-0-------------------------------------|
E|---------------------------------------------------------------------------|



************************************

| /   slide up
| \   slide down
| h   hammer-on
| p   pull-off
| ~   vibrato
| +   harmonic
| x   Mute note
| b   Bend
| pb  Pre-bend
| br  Bend release
| pbr Pre-bend release
| brb Bend release bend

************************************
Добавлено: 01.04.2016
Вам также может быть интересно:
Другие материалы по этой песне:
  • Аккорды и текст

Страница создана 31.03.2016
http://primanota.ru/rubber-lizard/maps-take-what-you-need-chords.htm
Привет, Гость.
Предлагаем пройти революционный курс по гитаре.
Подарок от PrimaNota.Ru, забирай!