PrimaNota.ru - самый крупный в мире бесплатный архив песенных текстов, аккордов, табулатур и нот


Rubber Lizard - In Tune - таба, видео

Регистрация Запомнить меня
Войти через:  Facebook Google Twitter Vk Yandex Mail.ru

Rubber Lizard - In Tune - таба, видео

Печатать
Просмотров: 33
-------------------------------------------------------------------------------
                             In tune - Rubber Lizard
-------------------------------------------------------------------------------
Tabbed by: Mark Money Travis

verses
e|-x-x-x-x-x-x-x-x-x-x-x-x-x-x-x---------------2-2-------------------------------------------------------|
B|-x-x-x-x-x-x-x-x-x-x-x-x-x-x-x---------------2-2-------------------------------------------------------|
G|-8-8-8-7-7-7-6-6-6-6-6-6-6-6-6---------------2-2-------------------------------------------------------|
D|-9-9-9-8-8-8-7-7-7-7-7-7-7-7-7---------2-4-4-4-4-------------------------------------------------------|
A|-9-9-9-8-8-8-7-7-7-7-7-7-7-7-7---------2-4-4-4-4-------------------------------------------------------|
E|-7-7-7-6-6-6-5-5-5-5-5-5-5-5-5---------0-2-2-2-2-------------------------------------------------------|

Pre chorus
e|------------------------------------------x-------x-----------------------------------------|
B|------------------------------------------0-------0-----------------------------------------|
G|------------------------------------------6-------8-----------------------------------------|
D|-4-4-4--4-4--4-4--4-4-4-4-4-4-------------7-------9-----------------------------------------|
A|-4-4-4--4-4--4-4--4-4-4-4-4-4-------------7-------9-----------------------------------------|
E|-2-0-2--0-2--2-2--0-2-0-2-0-2-------------5-------7-----------------------------------------|

chorus
e|-2-2-2-2-2-2-2-2-2-2-2-2-2----x-x-x-x-x-x-x-x-x-x---x-x-x-x-x-x-x-x-x-x-----------------------------|
B|-2-2-2-2-2-2-2-2-2-2-2-2-2----x-x-x-x-x-x-x-x-x-x---x-x-x-x-x-x-x-x-x-x-----------------------------|
G|-2-2-2-2-2-2-2-2-2-2-2-2-2----6-6-6-6-6-6-6-6-6-6---8-8-8-8-8-8-8-8-8-8-----------------------------|
D|-4-4-4-4-4-4-4-4-4-4-4-4-4----7-7-7-7-7-7-7-7-7-7---9-9-9-9-9-9-9-9-9-9-----------------------------|
A|-4-4-4-4-4-4-4-4-4-4-4-4-4----7-7-7-7-7-7-7-7-7-7---9-9-9-9-9-9-9-9-9-9-----------------------------|
E|-2-2-2-2-2-2-2-2-2-2-2-2-2----5-5-5-5-5-5-5-5-5-5---7-7-7-7-7-7-7-7-7-7-----------------------------|


************************************

| /   slide up
| \   slide down
| h   hammer-on
| p   pull-off
| ~   vibrato
| +   harmonic
| x   Mute note
| b   Bend
| pb  Pre-bend
| br  Bend release
| pbr Pre-bend release
| brb Bend release bend

************************************
Добавлено: 01.04.2016
Другие материалы по этой песне:
  • Аккорды и текст

Страница создана 31.03.2016
http://primanota.ru/rubber-lizard/in-tune-chords.htm
Привет, Гость.
Предлагаем пройти революционный курс по гитаре.
Подарок от PrimaNota.Ru, забирай!