PrimaNota.ru - самый крупный в мире бесплатный архив песенных текстов, аккордов, табулатур и нот


Rubber Band - Hickle Berry Song - таба, видео

Регистрация Запомнить меня
Войти через:  Facebook Google Twitter Vk Yandex Mail.ru

Rubber Band - Hickle Berry Song - таба, видео

Печатать
Просмотров: 94
Уроки эстрадного вокала в Санкт-Петербурге
This song has a nice laid back country rithum. 110 beets per minute except 
for Riff3 wich goes really fast. so have a good time.
I will send more Rubber Band tab in the future but untill then. Play hard.


(Riff1)110 beats per minute
|--3-3---3-3---3-3---3-3---3-3---3-3---3-3---3-3|
|--0-0---0-0---0-0---0-0---2-2---2-2---2-2---2-2|
|--0-0---0-0---0-0---0-0---3-3---3-3---3-3---3-3|
|--0-0---0-0---0-0---0-0-0-0-0-0-0-0-0-0-0-0-0-0|
|--2-2---2-2---2-2---2-2------------------------|
|3-3-3-3-3-3-3-3-3-3-3-3------------------------|

(Riff2) With a lot of distortion
|-----------------------------------------------------------------|
|-----------------------------------------------------------------|
|-----------------------------------------------------------------|
|---------------------------------3-5-----------------------------|
|5-5-5-5-5-7-7-7-7-7-5-5-5-5-5--5----5-5-5-5-5-7-7-7-7-7-5-5-5-5-5|
|3-3-3-3-3-5-5-5-5-5-3-3-3-3-3-------3-3-3-3-3-5-5-5-5-5-3-3-3-3-3|

|---------------------------------------------|
|--------------------------------------------^|
|------------------------------------------3-5|
|5-3-----------------------------------3-5----|
|----5-5-5-5-5-5-7-7-7-7-7-5-5-5-5-5-5--------|
|------3-3-3-3-3-5-5-5-5-5-3-3-3-3-3----------|

|---------------------------------------|
|---------------------------------------|
|------------------------------5-3------|
|----------------------------------5-3-^|
|5-5-5-5-5-7-7-7-7-7-5-5-5-5-5---------5|
|3-3-3-3-3-5-5-5-5-5-3-3-3-3-3----------|

(Riff3)Really Fast With distortion
|7-7-7-7-7-7-7-7-7-7-7----------------------|
|8-8-8-8-8-8-8-8-8-8-8-7-7-7-7-7-7-7-7-7-7-7|
|9-9-9-9-9-9-9-9-9-9-9-8-8-8-8-8-8-8-8-8-8-8|
|----------------------9-9-9-9-9-9-9-9-9-9-9|
|-------------------------------------------|
|-------------------------------------------|


ORDER
-----

Riff1 = 12X

Riff2 = 2X

Riff3 = 4X "REALLY FAST"

Riff1 = 4X


     
Добавлено: 16.09.2013
Вам также может быть интересно:
Другие материалы по этой песне:
  • Аккорды и текст

Страница создана 16.09.2013
http://primanota.ru/rubber-band/hickle-berry-song-chords.htm
Привет, Гость.
Предлагаем пройти революционный курс по гитаре.
Подарок от PrimaNota.Ru, забирай!