PrimaNota.ru - самый крупный в мире бесплатный архив песенных текстов, аккордов, табулатур и нот


Rtz - Return To Zero - таба, видео

Регистрация Запомнить меня
Войти через:  Facebook Google Twitter Vk Yandex Mail.ru

Rtz - Return To Zero - таба, видео

Печатать
Просмотров: 165
-------------------------------------------------------------------------------
                             Return To Zero - RTZ
-------------------------------------------------------------------------------
Tabbed by:Peter Hurton
Email: Peterhurton@rasbot.karoo.co.uk

Tuning:Standard

e|-----------------------------------|-----------------------------------|
B|-----------------------------------|-----------------------------------|
G|----------------7/-9---------9-----|----------------7/-9---------9-----|
D|----------------7/-9---------9-----|----------------7/-9---------9-----|
A|----------------5/-7---------7-----|----------------5/-7---------7-----|
E|0-0-0-3-0-0-5-0--------------------|0-0-0-3-0-0-5-0--------------------|

This Is Basically The Main Riff Of The Song ,Its Repeated Throughout 
the majority of the song And Its Very Fun To Play! 
Добавлено: 27.03.2012
Другие материалы по этой песне:
  • Аккорды и текст

Страница создана 27.03.2012
http://primanota.ru/rtz/return-to-zero-chords.htm
Привет, Гость.
Предлагаем пройти революционный курс по гитаре.
Подарок от PrimaNota.Ru, забирай!