PrimaNota.ru - самый крупный в мире бесплатный архив песенных текстов, аккордов, табулатур и нот


Rtz - Face The Music - таба, бас-таба, видео

Регистрация Запомнить меня
Войти через:  Facebook Google Twitter Vk Yandex Mail.ru

Rtz - Face The Music - таба, бас-таба, видео

Печатать
Просмотров: 111
-------------------------------------------------------------------------------
                             FACE THE MUSIC - RTZ
-------------------------------------------------------------------------------
Tabbed by: Isaias Garcia (TexasFury)

Tuning: Standard


Rhythm - Clean

                                                                 PM PM  PM PM PM PM PM PM  
     W                   W                   W                   E  E   E  E  E  E  E  E   
E||-------------------|-------------------|-------------------|---------------------------|
B||-------------------|-------------------|-------------------|--------10-----------9-----|
G||-------------------|-------------------|-------------------|-----9------9-----9-----9--|
D||-------------------|-------------------|-------------------|--9------------9-----------|
A||-------------------|-------------------|-------------------|---------------------------|
E||-------------------|-------------------|-------------------|---------------------------|


  PM PM  PM PM PM PM PM PM    PM PM  PM PM PM PM PM PM    PM PM  PM PM PM PM PM PM  
  E  E   E  E  E  E  E  E     E  E   E  E  E  E  E  E     E  E   E  E  E  E  E  E   
---------------------------|---------------------------|---------------------------|
--------10-----------9-----|--------10-----------9-----|--------10-----------9-----|
-----9------9-----9-----9--|-----9------9-----9--------|-----9------9-----9-----9--|
--9------------9-----------|--9------------9--------9--|--9------------9-----------|
---------------------------|---------------------------|---------------------------|
---------------------------|---------------------------|---------------------------|


  PM PM  PM PM PM PM PM PM    PM PM  PM PM PM PM PM PM    PM PM  PM PM PM PM PM PM  
  E  E   E  E  E  E  E  E     E  E   E  E  E  E  E  E     E  E   E  E  E  E  E  E   
---------------------------|---------------------------|---------------------------|
--------10-----------9-----|--------10-----------9-----|--------10-----------9-----|
-----9------9-----9-----9--|-----9------9-----9-----9--|-----9------9-----9-----9--|
--9------------9-----------|--9------------9-----------|--9------------9-----------|
---------------------------|---------------------------|---------------------------|
---------------------------|---------------------------|---------------------------|


  PM PM  PM PM PM PM PM PM    PM PM  PM PM PM PM PM PM    PM PM  PM PM PM PM PM PM  
  E  E   E  E  E  E  E  E     E  E   E  E  E  E  E  E     E  E   E  E  E  E  E  E   
---------------------------|---------------------------|---------------------------|
--------10-----------9-----|--------10-----------9-----|--------10-----------9-----|
-----9------9-----9-----9--|-----9------9-----9-----9--|-----9------9-----9-----9--|
--9------------9-----------|--9------------9-----------|--9------------9-----------|
---------------------------|---------------------------|---------------------------|
---------------------------|---------------------------|---------------------------|


  PM PM  PM PM PM PM PM PM    PM PM  PM PM PM PM PM PM    PM PM  PM PM PM PM PM PM  
  E  E   E  E  E  E  E  E     E  E   E  E  E  E  E  E     E  E   E  E  E  E  E  E   
---------------------------|---------------------------|---------------------------|
--------10-----------9-----|--------10-----------9-----|--------10-----------9-----|
-----9------9-----9-----9--|-----9------9-----9-----9--|-----9------9-----9-----9--|
--9------------9-----------|--9------------9-----------|--9------------9-----------|
---------------------------|---------------------------|---------------------------|
---------------------------|---------------------------|---------------------------|


  PM PM  PM PM PM PM PM PM    PM PM  PM PM PM PM PM PM    PM PM  PM PM PM PM PM PM  
  E  E   E  E  E  E  E  E     E  E   E  E  E  E  E  E     E  E   E  E  E  E  E  E   
---------------------------|---------------------------|---------------------------|
--------10-----------9-----|--------10-----------9-----|--------10-----------9-----|
-----9------9-----9-----9--|-----9------9-----9-----9--|-----9------9-----9-----9--|
--9------------9-----------|--9------------9-----------|--9------------9-----------|
---------------------------|---------------------------|---------------------------|
---------------------------|---------------------------|---------------------------|


  PM PM  PM PM PM PM PM PM    PM PM  PM PM PM PM PM PM    PM PM  PM PM PM PM PM PM  
  E  E   E  E  E  E  E  E     E  E   E  E  E  E  E  E     E  E   E  E  E  E  E  E   
---------------------------|---------------------------|---------------------------|
--------10-----------9-----|--------10-----------9-----|--------10-----------9-----|
-----9------9-----9-----9--|-----9------9-----9-----9--|-----9------9-----9-----9--|
--9------------9-----------|--9------------9-----------|--9------------9-----------|
---------------------------|---------------------------|---------------------------|
---------------------------|---------------------------|---------------------------|


  PM PM  PM PM PM PM PM PM    PM PM PM PM PM PM PM PM    PM PM PM PM PM  PM PM PM  
  E  E   E  E  E  E  E  E     E  E  E  E  E  E  E  E     E  E  E  E  E   E  E  E   
---------------------------|--------------------------|---------------------------|
--------10-----------9-----|--------8-----------7-----|--------8--------10--7-----|
-----9------9-----9-----9--|-----7-----7-----7-----7--|-----7-----7------------7--|
--9------------9-----------|--7-----------7-----------|--7-----------7------------|
---------------------------|--------------------------|---------------------------|
---------------------------|--------------------------|---------------------------|


  PM PM PM PM PM PM PM PM    PM PM PM PM PM PM PM PM                                          
  E  E  E  E  E  E  E  E     E  E  E  E  E  E  E  E     W                   W                 
--------------------------|--------------------------|-------------------|-------------------|
--------8-----------7-----|--------8-----------7-----|-------------------|-------------------|
-----7-----7-----7-----7--|-----7-----7-----7-----7--|-------------------|-------------------|
--7-----------7-----------|--7-----------7-----------|-------------------|-------------------|
--------------------------|--------------------------|-------------------|-------------------|
--------------------------|--------------------------|-------------------|-------------------|


  W                   W                   W                   W                   W                 
-------------------|-------------------|-------------------|-------------------|-------------------|
-------------------|-------------------|-------------------|-------------------|-------------------|
-------------------|-------------------|-------------------|-------------------|-------------------|
-------------------|-------------------|-------------------|-------------------|-------------------|
-------------------|-------------------|-------------------|-------------------|-------------------|
-------------------|-------------------|-------------------|-------------------|-------------------|


                      PM PM  PM PM PM PM PM PM    PM PM  PM PM PM PM PM PM  
  W                   E  E   E  E  E  E  E  E     E  E   E  E  E  E  E  E   
-------------------|---------------------------|---------------------------|
-------------------|--------10-----------9-----|--------10-----------9-----|
-------------------|-----9------9-----9-----9--|-----9------9-----9-----9--|
-------------------|--9------------9-----------|--9------------9-----------|
-------------------|---------------------------|---------------------------|
-------------------|---------------------------|---------------------------|


  PM PM  PM PM PM PM PM PM    PM PM  PM PM PM PM PM PM    PM PM  PM PM PM PM PM PM  
  E  E   E  E  E  E  E  E     E  E   E  E  E  E  E  E     E  E   E  E  E  E  E  E   
---------------------------|---------------------------|---------------------------|
--------10-----------9-----|--------10-----------9-----|--------10-----------9-----|
-----9------9-----9-----9--|-----9------9-----9-----9--|-----9------9-----9-----9--|
--9------------9-----------|--9------------9-----------|--9------------9-----------|
---------------------------|---------------------------|---------------------------|
---------------------------|---------------------------|---------------------------|


  PM PM  PM PM PM PM PM PM    PM PM  PM PM PM PM PM PM    PM PM  PM PM PM PM PM PM  
  E  E   E  E  E  E  E  E     E  E   E  E  E  E  E  E     E  E   E  E  E  E  E  E   
---------------------------|---------------------------|---------------------------|
--------10-----------9-----|--------10-----------9-----|--------10-----------9-----|
-----9------9-----9-----9--|-----9------9-----9-----9--|-----9------9-----9-----9--|
--9------------9-----------|--9------------9-----------|--9------------9-----------|
---------------------------|---------------------------|---------------------------|
---------------------------|---------------------------|---------------------------|


  PM PM  PM PM PM PM PM PM    PM PM  PM PM PM PM PM PM    PM PM PM PM PM PM PM PM  
  E  E   E  E  E  E  E  E     E  E   E  E  E  E  E  E     E  E  E  E  E  E  E  E   
---------------------------|---------------------------|--------------------------|
--------10-----------9-----|--------10-----------9-----|--------8-----------7-----|
-----9------9-----9-----9--|-----9------9-----9-----9--|-----7-----7-----7-----7--|
--9------------9-----------|--9------------9-----------|--7-----------7-----------|
---------------------------|---------------------------|--------------------------|
---------------------------|---------------------------|--------------------------|


  PM PM PM PM PM  PM PM PM    PM PM PM PM PM PM PM PM    PM PM PM PM PM PM PM PM  
  E  E  E  E  E   E  E  E     E  E  E  E  E  E  E  E     E  E  E  E  E  E  E  E   
---------------------------|--------------------------|--------------------------|
--------8--------10--7-----|--------8-----------7-----|--------8-----------7-----|
-----7-----7------------7--|-----7-----7-----7-----7--|-----7-----7-----7-----7--|
--7-----------7------------|--7-----------7-----------|--7-----------7-----------|
---------------------------|--------------------------|--------------------------|
---------------------------|--------------------------|--------------------------|


  W                   W                   W                   W                   W                 
-------------------|-------------------|-------------------|-------------------|-------------------|
-------------------|-------------------|-------------------|-------------------|-------------------|
-------------------|-------------------|-------------------|-------------------|-------------------|
-------------------|-------------------|-------------------|-------------------|-------------------|
-------------------|-------------------|-------------------|-------------------|-------------------|
-------------------|-------------------|-------------------|-------------------|-------------------|


  W                   W                   W                   W                   W                 
-------------------|-------------------|-------------------|-------------------|-------------------|
-------------------|-------------------|-------------------|-------------------|-------------------|
-------------------|-------------------|-------------------|-------------------|-------------------|
-------------------|-------------------|-------------------|-------------------|-------------------|
-------------------|-------------------|-------------------|-------------------|-------------------|
-------------------|-------------------|-------------------|-------------------|-------------------|


  W                   W                   W                   W                   W                 
-------------------|-------------------|-------------------|-------------------|-------------------|
-------------------|-------------------|-------------------|-------------------|-------------------|
-------------------|-------------------|-------------------|-------------------|-------------------|
-------------------|-------------------|-------------------|-------------------|-------------------|
-------------------|-------------------|-------------------|-------------------|-------------------|
-------------------|-------------------|-------------------|-------------------|-------------------|


  W                   W                   W                   W                   W                 
-------------------|-------------------|-------------------|-------------------|-------------------|
-------------------|-------------------|-------------------|-------------------|-------------------|
-------------------|-------------------|-------------------|-------------------|-------------------|
-------------------|-------------------|-------------------|-------------------|-------------------|
-------------------|-------------------|-------------------|-------------------|-------------------|
-------------------|-------------------|-------------------|-------------------|-------------------|


  W                   W                   W                   W                 
-------------------|-------------------|-------------------|-------------------|
-------------------|-------------------|-------------------|-------------------|
-------------------|-------------------|-------------------|-------------------|
-------------------|-------------------|-------------------|-------------------|
-------------------|-------------------|-------------------|-------------------|
-------------------|-------------------|-------------------|-------------------|


  PM PM  PM PM PM PM PM PM    PM PM  PM PM PM PM PM PM    PM PM  PM PM PM PM PM PM  
  E  E   E  E  E  E  E  E     E  E   E  E  E  E  E  E     E  E   E  E  E  E  E  E   
---------------------------|---------------------------|---------------------------|
--------10-----------9-----|--------10-----------9-----|--------10-----------9-----|
-----9------9-----9-----9--|-----9------9-----9-----9--|-----9------9-----9-----9--|
--9------------9-----------|--9------------9-----------|--9------------9-----------|
---------------------------|---------------------------|---------------------------|
---------------------------|---------------------------|---------------------------|


  PM PM  PM PM PM PM PM PM    PM PM PM PM PM PM PM PM    PM PM PM PM PM  PM PM PM  
  E  E   E  E  E  E  E  E     E  E  E  E  E  E  E  E     E  E  E  E  E   E  E  E   
---------------------------|--------------------------|---------------------------|
--------10-----------9-----|--------8-----------7-----|--------8--------10--7-----|
-----9------9-----9-----9--|-----7-----7-----7-----7--|-----7-----7------------7--|
--9------------9-----------|--7-----------7-----------|--7-----------7------------|
---------------------------|--------------------------|---------------------------|
---------------------------|--------------------------|---------------------------|


  PM PM PM PM PM PM PM PM    PM PM PM PM PM PM PM PM                                          
  E  E  E  E  E  E  E  E     E  E  E  E  E  E  E  E     W                   W                 
--------------------------|--------------------------|-------------------|-------------------|
--------8-----------7-----|--------8-----------7-----|-------------------|-------------------|
-----7-----7-----7-----7--|-----7-----7-----7-----7--|-------------------|-------------------|
--7-----------7-----------|--7-----------7-----------|-------------------|-------------------|
--------------------------|--------------------------|-------------------|-------------------|
--------------------------|--------------------------|-------------------|-------------------|


  W                   W                   W                   W                   W                 
-------------------|-------------------|-------------------|-------------------|-------------------|
-------------------|-------------------|-------------------|-------------------|-------------------|
-------------------|-------------------|-------------------|-------------------|-------------------|
-------------------|-------------------|-------------------|-------------------|-------------------|
-------------------|-------------------|-------------------|-------------------|-------------------|
-------------------|-------------------|-------------------|-------------------|-------------------|


  W                   W                   W                   W                   W                 
-------------------|-------------------|-------------------|-------------------|-------------------|
-------------------|-------------------|-------------------|-------------------|-------------------|
-------------------|-------------------|-------------------|-------------------|-------------------|
-------------------|-------------------|-------------------|-------------------|-------------------|
-------------------|-------------------|-------------------|-------------------|-------------------|
-------------------|-------------------|-------------------|-------------------|-------------------|


  W                   W                   W                   W                   W                 
-------------------|-------------------|-------------------|-------------------|-------------------|
-------------------|-------------------|-------------------|-------------------|-------------------|
-------------------|-------------------|-------------------|-------------------|-------------------|
-------------------|-------------------|-------------------|-------------------|-------------------|
-------------------|-------------------|-------------------|-------------------|-------------------|
-------------------|-------------------|-------------------|-------------------|-------------------|


  W                   W                   W                   W                   W                 
-------------------|-------------------|-------------------|-------------------|-------------------|
-------------------|-------------------|-------------------|-------------------|-------------------|
-------------------|-------------------|-------------------|-------------------|-------------------|
-------------------|-------------------|-------------------|-------------------|-------------------|
-------------------|-------------------|-------------------|-------------------|-------------------|
-------------------|-------------------|-------------------|-------------------|-------------------|


  W                   W                   W                   W                   W                 
-------------------|-------------------|-------------------|-------------------|-------------------|
-------------------|-------------------|-------------------|-------------------|-------------------|
-------------------|-------------------|-------------------|-------------------|-------------------|
-------------------|-------------------|-------------------|-------------------|-------------------|
-------------------|-------------------|-------------------|-------------------|-------------------|
-------------------|-------------------|-------------------|-------------------|-------------------|


  W                   W                   W                   W                   W                 
-------------------|-------------------|-------------------|-------------------|-------------------|
-------------------|-------------------|-------------------|-------------------|-------------------|
-------------------|-------------------|-------------------|-------------------|-------------------|
-------------------|-------------------|-------------------|-------------------|-------------------|
-------------------|-------------------|-------------------|-------------------|-------------------|
-------------------|-------------------|-------------------|-------------------|-------------------|


  W                   W                   W                   W                  
-------------------|-------------------|-------------------|-------------------||
-------------------|-------------------|-------------------|-------------------||
-------------------|-------------------|-------------------|-------------------||
-------------------|-------------------|-------------------|-------------------||
-------------------|-------------------|-------------------|-------------------||
-------------------|-------------------|-------------------|-------------------||



Rhythm - left/right

     W                   W                   W                   W                 
E||-------------------|-------------------|-------------------|-------------------|
B||-------------------|-------------------|-------------------|-------------------|
G||-------------------|-------------------|-------------------|-------------------|
D||-------------------|-------------------|-------------------|-------------------|
A||-------------------|-------------------|-------------------|-------------------|
E||-------------------|-------------------|-------------------|-------------------|


  W                   W                   W                   W                   W                 
-------------------|-------------------|-------------------|-------------------|-------------------|
-------------------|-------------------|-------------------|-------------------|-------------------|
-------------------|-------------------|-------------------|-------------------|-------------------|
-------------------|-------------------|-------------------|-------------------|-------------------|
-------------------|-------------------|-------------------|-------------------|-------------------|
-------------------|-------------------|-------------------|-------------------|-------------------|


  W                   W                   W                   W                   W                 
-------------------|-------------------|-------------------|-------------------|-------------------|
-------------------|-------------------|-------------------|-------------------|-------------------|
-------------------|-------------------|-------------------|-------------------|-------------------|
-------------------|-------------------|-------------------|-------------------|-------------------|
-------------------|-------------------|--2----------------|--L----------------|-------------------|
-------------------|-------------------|--0----------------|--L----------------|-------------------|


  W                   W                   W                   W                   W                 
-------------------|-------------------|-------------------|-------------------|-------------------|
-------------------|-------------------|-------------------|-------------------|-------------------|
-------------------|-------------------|-------------------|-------------------|-------------------|
-------------------|-------------------|-------------------|-------------------|-------------------|
-------------------|-------------------|-------------------|-------------------|-------------------|
-------------------|-------------------|-------------------|-------------------|-------------------|


  W                   W                   W                   W                   W                 
-------------------|-------------------|-------------------|-------------------|-------------------|
-------------------|-------------------|-------------------|-------------------|-------------------|
-------------------|-------------------|-------------------|-------------------|-------------------|
-------------------|-------------------|-------------------|-------------------|-------------------|
-------------------|-------------------|-------------------|-------------------|-------------------|
-------------------|-------------------|-------------------|-------------------|-------------------|


  W                   W                   H        Q     Q        E   E  E  E  E  E  E  E   
-------------------|-------------------|-----------------------|---------------------------|
-------------------|-------------------|-----------------------|-----10-----9-----7-----5--|
-------------------|-------------------|-----------------------|------9-----9-----8-----6--|
-------------------|-------------------|-----------------------|------9-----9-----9-----7--|
-------------------|-------------------|-----------------------|---------------------------|
-------------------|-------------------|----------------12\----|---------------------------|


  Q    E  E  Q    E  E     E   E  E  E  E  E  E  E     Q    E   E   Q     Q      
------------------------|---------------------------|---------------------------|
--L----L--7--L----x--x--|--x--10-----9-----7-----8--|--L----L--10---L-----------|
--L----L--7--L----x--x--|--x---9-----9-----8-----7--|--L----L---9---L-----------|
--L----L--7--L----x--x--|--x---9-----9-----9-----5--|--L----L---7---L-----------|
----------5--L----------|---------------------------|---------------------------|
------------------------|---------------------------|--------------------12\----|


  E   E  E  E  E  E  E  E     Q    E  E  Q    E  E     E   E  E  E  E  E  E  E   
---------------------------|------------------------|---------------------------|
-----10-----9-----7-----5--|--L----L--7--L----x--x--|--x--10-----9-----7-----8--|
------9-----9-----8-----6--|--L----L--7--L----x--x--|--x---9-----9-----8-----7--|
------9-----9-----9-----7--|--L----L--7--L----x--x--|--x---9-----9-----9-----5--|
---------------------------|----------5--L----------|---------------------------|
---------------------------|------------------------|---------------------------|


  Q    E   E   Q     Q        W                   W                   W                 
---------------------------|-------------------|-------------------|-------------------|
--L----L--10---L-----------|-------------------|-------------------|-------------------|
--L----L---9---L-----------|-------------------|-------------------|-------------------|
--L----L---7---L-----------|-------------------|-------------------|-------------------|
---------------------------|--7----------------|--L----------------|-------------------|
--------------------12\----|-------------------|-------------------|-------------------|


  W                   W                   W                   W                   W                 
-------------------|-------------------|-------------------|-------------------|-------------------|
-------------------|-------------------|-------------------|-------------------|-------------------|
-------------------|-------------------|-------------------|-------------------|-------------------|
-------------------|-------------------|-------------------|-------------------|-------------------|
-------------------|-------------------|-------------------|-------------------|-------------------|
-------------------|-------------------|-------------------|-------------------|-------------------|


  W                   W                   W                   W                   W                 
-------------------|-------------------|-------------------|-------------------|-------------------|
-------------------|-------------------|-------------------|-------------------|-------------------|
-------------------|-------------------|-------------------|-------------------|-------------------|
-------------------|-------------------|-------------------|-------------------|-------------------|
-------------------|-------------------|-------------------|-------------------|-------------------|
-------------------|-------------------|-------------------|-------------------|-------------------|


  Q    H          Q        E   E  E  E  E  E  E  E     Q    E  S S Q    E  E   
------------------------|---------------------------|-------------------------|
------------------------|-----10-----9-----7-----5--|--L----L--7-7-7----x--x--|
-------7~---------------|------9-----9-----8-----6--|--L----L--7-7-7----x--x--|
------------------------|------9-----9-----9-----7--|--L----L--7-7-7----x--x--|
------------------------|---------------------------|----------5-5-5----------|
-----------------12\----|---------------------------|-------------------------|


  E   E  E  E  E  E  E  E     Q    E   E   Q     Q        E   E  E  E  E  E  E  S S  
---------------------------|---------------------------|----------------------------|
--x--10-----9-----7-----8--|--L----L--10---L-----------|-----10-----9-----7-----5-5-|
--x---9-----9-----8-----7--|--L----L---9---L-----------|------9-----9-----8-----6-6-|
--x---9-----9-----9-----5--|--L----L---7---L-----------|------9-----9-----9-----7-7-|
---------------------------|---------------------------|----------------------------|
---------------------------|--------------------12\----|----------------------------|


  Q    E  S S Q    E  E     E   E  E  E  E  E  E  E     Q    E   E   Q     Q      
-------------------------|---------------------------|---------------------------|
--5----L--7-7-7----x--x--|--x--10-----9-----7-----8--|--L----L--10---L-----------|
--6----L--7-7-7----x--x--|--x---9-----9-----8-----7--|--L----L---9---L-----------|
--7----L--7-7-7----x--x--|--x---9-----9-----9-----5--|--L----L---7---L-----------|
----------5-5-5----------|---------------------------|---------------------------|
-------------------------|---------------------------|--------------------12\----|


  E   E  E  E  E  E  E  E     Q    E  E  Q    E  E     E   E  E  E  E  E  E  E   
---------------------------|------------------------|---------------------------|
-----10-----9-----7-----5--|--L----L--7--L----x--x--|--x--10-----9-----7-----8--|
------9-----9-----8-----6--|--L----L--7--L----x--x--|--x---9-----9-----8-----7--|
------9-----9-----9-----7--|--L----L--7--L----x--x--|--x---9-----9-----9-----5--|
---------------------------|----------5--L----------|---------------------------|
---------------------------|------------------------|---------------------------|


  Q    E   E   Q     Q        E   E  E  E  E  E  E  E     Q    E  E  Q    E  E   
---------------------------|---------------------------|------------------------|
--L----L--10---L-----------|-----10-----9-----7-----5--|--L----L--7--L----x--x--|
--L----L---9---L-----------|------9-----9-----8-----6--|--L----L--7--L----x--x--|
--L----L---7---L-----------|------9-----9-----9-----7--|--L----L--7--L----x--x--|
---------------------------|---------------------------|----------5--L----------|
--------------------12\----|---------------------------|------------------------|


  E   E  E  E  E  E  E  E     Q    E   E   Q     Q        E   E  E  E  E  E  E  E   
---------------------------|---------------------------|---------------------------|
--x--10-----9-----7-----8--|--L----L--10---L-----------|-----10-----9-----7-----5--|
--x---9-----9-----8-----7--|--L----L---9---L-----------|------9-----9-----8-----6--|
--x---9-----9-----9-----5--|--L----L---7---L-----------|------9-----9-----9-----7--|
---------------------------|---------------------------|---------------------------|
---------------------------|--------------------12\----|---------------------------|


  Q    E  E  Q    E  E     E   E  E  E  E  E  E  E     Q    E   E   Q     Q      
------------------------|---------------------------|---------------------------|
--L----L--7--L----x--x--|--x--10-----9-----7-----8--|--L----L--10---L-----------|
--L----L--7--L----x--x--|--x---9-----9-----8-----7--|--L----L---9---L-----------|
--L----L--7--L----x--x--|--x---9-----9-----9-----5--|--L----L---7---L-----------|
----------5--L----------|---------------------------|---------------------------|
------------------------|---------------------------|--------------------12\----|


  E   E  E  E  E  E  E  E     Q    E  E  Q    E  E     E   E  E  E  E  E  E  E   
---------------------------|------------------------|---------------------------|
-----10-----9-----7-----5--|--L----L--7--L----x--x--|--x--10-----9-----7-----8--|
------9-----9-----8-----6--|--L----L--7--L----x--x--|--x---9-----9-----8-----7--|
------9-----9-----9-----7--|--L----L--7--L----x--x--|--x---9-----9-----9-----5--|
---------------------------|----------5--L----------|---------------------------|
---------------------------|------------------------|---------------------------|


  Q    E   E   Q     Q        W                   W                   W                 
---------------------------|-------------------|-------------------|-------------------|
--L----L--10---L-----------|-------------------|-------------------|-------------------|
--L----L---9---L-----------|-------------------|-------------------|-------------------|
--L----L---7---L-----------|-------------------|-------------------|-------------------|
---------------------------|-------------------|-------------------|-------------------|
--------------------12\----|-------------------|-------------------|-------------------|


  W                   W                   W                   W                 
-------------------|-------------------|-------------------|-------------------|
-------------------|-------------------|-------------------|-------------------|
-------------------|-------------------|-------------------|-------------------|
-------------------|-------------------|-------------------|-------------------|
-------------------|-------------------|-------------------|-------------------|
-------------------|-------------------|-------------------|-------------------|


  H        Q     Q        E   E  E  E  E  E  E  E     Q    E  E  Q    E  E   
-----------------------|---------------------------|------------------------|
-----------------------|-----10-----9-----7-----5--|--L----L--7--L----x--x--|
-----------------------|------9-----9-----8-----6--|--L----L--7--L----x--x--|
-----------------------|------9-----9-----9-----7--|--L----L--7--L----x--x--|
-----------------------|---------------------------|----------5--L----------|
----------------12\----|---------------------------|------------------------|


  E   E  E  E  E  E  E  E     Q    E   E   Q     Q        E   E  E  E  E  E  E  E   
---------------------------|---------------------------|---------------------------|
--x--10-----9-----7-----8--|--L----L--10---L-----------|-----10-----9-----7-----5--|
--x---9-----9-----8-----7--|--L----L---9---L-----------|------9-----9-----8-----6--|
--x---9-----9-----9-----5--|--L----L---7---L-----------|------9-----9-----9-----7--|
---------------------------|---------------------------|---------------------------|
---------------------------|--------------------12\----|---------------------------|


  Q    E  E  Q    E  E     E   E  E  E  E  E  E  E     Q    E   E   Q     Q      
------------------------|---------------------------|---------------------------|
--L----L--7--L----x--x--|--x--10-----9-----7-----8--|--L----L--10---L-----------|
--L----L--7--L----x--x--|--x---9-----9-----8-----7--|--L----L---9---L-----------|
--L----L--7--L----x--x--|--x---9-----9-----9-----5--|--L----L---7---L-----------|
----------5--L----------|---------------------------|---------------------------|
------------------------|---------------------------|--------------------12\----|


  E   E  E  E  E  E  E  E     Q    E  E  Q    E  E     E   E  E  E  E  E  E  E   
---------------------------|------------------------|---------------------------|
-----10-----9-----7-----5--|--L----L--7--L----x--x--|--x--10-----9-----7-----8--|
------9-----9-----8-----6--|--L----L--7--L----x--x--|--x---9-----9-----8-----7--|
------9-----9-----9-----7--|--L----L--7--L----x--x--|--x---9-----9-----9-----5--|
---------------------------|----------5--L----------|---------------------------|
---------------------------|------------------------|---------------------------|


  Q    E   E   Q     Q        E   E  E  E  E  E  E  E     Q    E  E  Q    E  E   
---------------------------|---------------------------|------------------------|
--L----L--10---L-----------|-----10-----9-----7-----5--|--L----L--7--L----x--x--|
--L----L---9---L-----------|------9-----9-----8-----6--|--L----L--7--L----x--x--|
--L----L---7---L-----------|------9-----9-----9-----7--|--L----L--7--L----x--x--|
---------------------------|---------------------------|----------5--L----------|
--------------------12\----|---------------------------|------------------------|


  E   E  E  E  E  E  E  E     Q    E   E   Q     Q        E   E  E  E  E  E  E  E   
---------------------------|---------------------------|---------------------------|
--x--10-----9-----7-----8--|--L----L--10---L-----------|-----10-----9-----7-----5--|
--x---9-----9-----8-----7--|--L----L---9---L-----------|------9-----9-----8-----6--|
--x---9-----9-----9-----5--|--L----L---7---L-----------|------9-----9-----9-----7--|
---------------------------|---------------------------|---------------------------|
---------------------------|--------------------12\----|---------------------------|


  Q    E  E  Q    E  E     E   E  E  E  E  E  E  E     Q    E   E   Q     Q      
------------------------|---------------------------|---------------------------|
--L----L--7--L----x--x--|--x--10-----9-----7-----8--|--L----L--10---L-----------|
--L----L--7--L----x--x--|--x---9-----9-----8-----7--|--L----L---9---L-----------|
--L----L--7--L----x--x--|--x---9-----9-----9-----5--|--L----L---7---L-----------|
----------5--L----------|---------------------------|---------------------------|
------------------------|---------------------------|--------------------12\----|


  E   E  E  E  E  E  E  E     Q    E  E  Q    E  E     E   E  E  E  E  E  E  E   
---------------------------|------------------------|---------------------------|
-----10-----9-----7-----5--|--L----L--7--L----x--x--|--x--10-----9-----7-----8--|
------9-----9-----8-----6--|--L----L--7--L----x--x--|--x---9-----9-----8-----7--|
------9-----9-----9-----7--|--L----L--7--L----x--x--|--x---9-----9-----9-----5--|
---------------------------|----------5--L----------|---------------------------|
---------------------------|------------------------|---------------------------|


  Q    E   E   Q     Q        E   E  E  E  E  E  E  E     Q    E  E  Q    E  E   
---------------------------|---------------------------|------------------------|
--L----L--10---L-----------|-----10-----9-----7-----5--|--L----L--7--L----x--x--|
--L----L---9---L-----------|------9-----9-----8-----6--|--L----L--7--L----x--x--|
--L----L---7---L-----------|------9-----9-----9-----7--|--L----L--7--L----x--x--|
---------------------------|---------------------------|----------5--L----------|
--------------------12\----|---------------------------|------------------------|


  E   E  E  E  E  E  E  E     Q    E   E   Q     Q        E   E  E  E  E  E  E  E   
---------------------------|---------------------------|---------------------------|
--x--10-----9-----7-----8--|--L----L--10---L-----------|-----10-----9-----7-----5--|
--x---9-----9-----8-----7--|--L----L---9---L-----------|------9-----9-----8-----6--|
--x---9-----9-----9-----5--|--L----L---7---L-----------|------9-----9-----9-----7--|
---------------------------|---------------------------|---------------------------|
---------------------------|--------------------12\----|---------------------------|


  Q    E  E  Q    E  E     E   E  E  E  E  E  E  E     Q    E   E   Q     Q      
------------------------|---------------------------|---------------------------|
--L----L--7--L----x--x--|--x--10-----9-----7-----8--|--L----L--10---L-----------|
--L----L--7--L----x--x--|--x---9-----9-----8-----7--|--L----L---9---L-----------|
--L----L--7--L----x--x--|--x---9-----9-----9-----5--|--L----L---7---L-----------|
----------5--L----------|---------------------------|---------------------------|
------------------------|---------------------------|--------------------12\----|


  W                   W                   W                   W                  
-------------------|-------------------|-------------------|-------------------||
-------------------|-------------------|-------------------|-------------------||
-------------------|-------------------|-------------------|-------------------||
-------------------|-------------------|-------------------|-------------------||
-------------------|-------------------|-------------------|-------------------||
-------------------|-------------------|-------------------|-------------------||




Rhythm - center

     W                   W                   W                   W                 
E||-------------------|-------------------|-------------------|-------------------|
B||-------------------|-------------------|-------------------|-------------------|
G||-------------------|-------------------|-------------------|-------------------|
D||-------------------|-------------------|-------------------|-------------------|
A||-------------------|-------------------|-------------------|-------------------|
E||-------------------|-------------------|-------------------|-------------------|


  W                   W                   W                   W                   W                 
-------------------|-------------------|-------------------|-------------------|-------------------|
-------------------|-------------------|-------------------|-------------------|-------------------|
-------------------|-------------------|-------------------|-------------------|-------------------|
-------------------|-------------------|-------------------|-------------------|-------------------|
-------------------|-------------------|-------------------|-------------------|-------------------|
-------------------|-------------------|-------------------|-------------------|-------------------|


  W                   W                   W                   W                   W                 
-------------------|-------------------|-------------------|-------------------|-------------------|
-------------------|-------------------|-------------------|-------------------|-------------------|
-------------------|-------------------|-------------------|-------------------|-------------------|
-------------------|-------------------|-------------------|-------------------|-------------------|
-------------------|-------------------|-------------------|-------------------|-------------------|
-------------------|-------------------|-------------------|-------------------|-------------------|


  W                   W                   W                   W                   W                 
-------------------|-------------------|-------------------|-------------------|-------------------|
-------------------|-------------------|-------------------|-------------------|-------------------|
-------------------|-------------------|-------------------|-------------------|-------------------|
-------------------|-------------------|-------------------|-------------------|-------------------|
-------------------|-------------------|-------------------|-------------------|-------------------|
-------------------|-------------------|-------------------|-------------------|-------------------|


  W                   W                   W                   W                   W                 
-------------------|-------------------|-------------------|-------------------|-------------------|
-------------------|-------------------|-------------------|-------------------|-------------------|
-------------------|-------------------|-------------------|-------------------|-------------------|
-------------------|-------------------|-------------------|-------------------|-------------------|
-------------------|-------------------|-------------------|-------------------|-------------------|
-------------------|-------------------|-------------------|-------------------|-------------------|


  W                   W                   W                   W                   W                 
-------------------|-------------------|-------------------|-------------------|-------------------|
-------------------|-------------------|-------------------|-------------------|-------------------|
-------------------|-------------------|-------------------|-------------------|-------------------|
-------------------|-------------------|-------------------|-------------------|-------------------|
-------------------|-------------------|-------------------|-------------------|-------------------|
-------------------|-------------------|-------------------|-------------------|-------------------|


  H        Q    E   E      Q     E   E   Q     Q        W                   W                 
-----------------------|-----------------------------|-------------------|-------------------|
-------------------12--|--12-----L--14---L-----------|-------------------|-------------------|
-------------------12--|--12-----L--14---L-----------|-------------------|-------------------|
-------------------12--|--12-----L--14---L-----------|-------------------|-------------------|
-----------------------|-----------------------------|-------------------|-------------------|
-----------------------|----------------------12\----|-------------------|-------------------|


  H        Q    E   E      Q     E   E   Q     Q        W                   W                 
-----------------------|-----------------------------|-------------------|-------------------|
-------------------12--|--12-----L--14---L-----------|-------------------|-------------------|
-------------------12--|--12-----L--14---L-----------|-------------------|-------------------|
-------------------12--|--12-----L--14---L-----------|-------------------|-------------------|
-----------------------|-----------------------------|-------------------|-------------------|
-----------------------|----------------------12\----|-------------------|-------------------|


  W                   W                   W                   W                   W                 
-------------------|-------------------|-------------------|-------------------|-------------------|
-------------------|-------------------|-------------------|-------------------|-------------------|
-------------------|-------------------|-------------------|-------------------|-------------------|
-------------------|-------------------|-------------------|-------------------|-------------------|
-------------------|-------------------|-------------------|-------------------|-------------------|
-------------------|-------------------|-------------------|-------------------|-------------------|


  W                   W                   W                   W                   W                 
-------------------|-------------------|-------------------|-------------------|-------------------|
-------------------|-------------------|-------------------|-------------------|-------------------|
-------------------|-------------------|-------------------|-------------------|-------------------|
-------------------|-------------------|-------------------|-------------------|-------------------|
-------------------|-------------------|-------------------|-------------------|-------------------|
-------------------|-------------------|-------------------|-------------------|-------------------|


  W                   W                   W                   W                 
-------------------|-------------------|-------------------|-------------------|
-------------------|-------------------|-------------------|-------------------|
-------------------|-------------------|-------------------|-------------------|
-------------------|-------------------|-------------------|-------------------|
-------------------|-------------------|-------------------|-------------------|
-------------------|-------------------|-------------------|-------------------|


  H        Q    E   E      Q     E   E   Q     Q       W                   W                 
-----------------------|----------------------------|-------------------|-------------------|
-------------------12--|--12-----L--14---L----------|-------------------|-------------------|
-------------------12--|--12-----L--14---L----------|-------------------|-------------------|
-------------------12--|--12-----L--14---L----------|-------------------|-------------------|
-----------------------|----------------------------|-------------------|-------------------|
-----------------------|----------------------12----|-------------------|-------------------|


  H        Q    E   E      Q     E   E   Q     Q       W                   W                 
-----------------------|----------------------------|-------------------|-------------------|
-------------------12--|--12-----L--14---L----------|-------------------|-------------------|
-------------------12--|--12-----L--14---L----------|-------------------|-------------------|
-------------------12--|--12-----L--14---L----------|-------------------|-------------------|
-----------------------|----------------------------|-------------------|-------------------|
-----------------------|----------------------12----|-------------------|-------------------|


  H        Q    E   E      Q     E   E   Q     Q       W                   W                 
-----------------------|----------------------------|-------------------|-------------------|
-------------------12--|--12-----L--14---L----------|-------------------|-------------------|
-------------------12--|--12-----L--14---L----------|-------------------|-------------------|
-------------------12--|--12-----L--14---L----------|-------------------|-------------------|
-----------------------|----------------------------|--7----------------|--L----------------|
-----------------------|----------------------12----|-------------------|-------------------|


  H        Q    E   E      Q     E   E   Q     Q        W                   W                 
-----------------------|-----------------------------|-------------------|-------------------|
-------------------12--|--12-----L--14---L-----------|-------------------|-------------------|
-------------------12--|--12-----L--14---L-----------|-------------------|-------------------|
-------------------12--|--12-----L--14---L-----------|-------------------|-------------------|
-----------------------|-----------------------------|-------------------|-------------------|
-----------------------|----------------------12\----|-------------------|-------------------|


  H        Q    E   E      Q     E   E   Q     Q        W                   W                 
-----------------------|-----------------------------|-------------------|-------------------|
-------------------12--|--12-----L--14---L-----------|-------------------|-------------------|
-------------------12--|--12-----L--14---L-----------|-------------------|-------------------|
-------------------12--|--12-----L--14---L-----------|-------------------|-------------------|
-----------------------|-----------------------------|-------------------|-------------------|
-----------------------|----------------------12\----|-------------------|-------------------|


  H        Q    E   E      Q     E   E   Q     Q        W                   W                 
-----------------------|-----------------------------|-------------------|-------------------|
-------------------12--|--12-----L--14---L-----------|-------------------|-------------------|
-------------------12--|--12-----L--14---L-----------|-------------------|-------------------|
-------------------12--|--12-----L--14---L-----------|-------------------|-------------------|
-----------------------|-----------------------------|-------------------|-------------------|
-----------------------|----------------------12\----|-------------------|-------------------|


  W                   W                   W                   W                   W                 
-------------------|-------------------|-------------------|-------------------|-------------------|
-------------------|-------------------|-------------------|-------------------|-------------------|
-------------------|-------------------|-------------------|-------------------|-------------------|
-------------------|-------------------|-------------------|-------------------|-------------------|
-------------------|-------------------|-------------------|-------------------|-------------------|
-------------------|-------------------|-------------------|-------------------|-------------------|


  W                   W                   W                   H        Q    E   E   
-------------------|-------------------|-------------------|-----------------------|
-------------------|-------------------|-------------------|-------------------12--|
-------------------|-------------------|-------------------|-------------------12--|
-------------------|-------------------|-------------------|-------------------12--|
-------------------|-------------------|-------------------|-----------------------|
-------------------|-------------------|-------------------|-----------------------|


   Q     E   E   Q     Q        W                   W                   H        Q    E   E   
-----------------------------|-------------------|-------------------|-----------------------|
--12-----L--14---L-----------|-------------------|-------------------|-------------------12--|
--12-----L--14---L-----------|-------------------|-------------------|-------------------12--|
--12-----L--14---L-----------|-------------------|-------------------|-------------------12--|
-----------------------------|-------------------|-------------------|-----------------------|
----------------------12\----|-------------------|-------------------|-----------------------|


   Q     E   E   Q     Q        W                   W                   H        Q    E   E   
-----------------------------|-------------------|-------------------|-----------------------|
--12-----L--14---L-----------|-------------------|-------------------|-------------------12--|
--12-----L--14---L-----------|-------------------|-------------------|-------------------12--|
--12-----L--14---L-----------|-------------------|-------------------|-------------------12--|
-----------------------------|-------------------|-------------------|-----------------------|
----------------------12\----|-------------------|-------------------|-----------------------|


   Q     E   E   Q     Q       W                   W                   H        Q    E   E   
----------------------------|-------------------|-------------------|-----------------------|
--12-----L--14---L----------|-------------------|-------------------|-------------------12--|
--12-----L--14---L----------|-------------------|-------------------|-------------------12--|
--12-----L--14---L----------|-------------------|-------------------|-------------------12--|
----------------------------|-------------------|-------------------|-----------------------|
----------------------12----|-------------------|-------------------|-----------------------|


   Q     E   E   Q     Q       W                   W                   H        Q    E   E   
----------------------------|-------------------|-------------------|-----------------------|
--12-----L--14---L----------|-------------------|-------------------|-------------------12--|
--12-----L--14---L----------|-------------------|-------------------|-------------------12--|
--12-----L--14---L----------|-------------------|-------------------|-------------------12--|
----------------------------|-------------------|-------------------|-----------------------|
----------------------12----|-------------------|-------------------|-----------------------|


   Q     E   E   Q     Q       W                   W                   W                 
----------------------------|-------------------|-------------------|-------------------|
--12-----L--14---L----------|-------------------|-------------------|-------------------|
--12-----L--14---L----------|-------------------|-------------------|-------------------|
--12-----L--14---L----------|-------------------|-------------------|-------------------|
----------------------------|-------------------|-------------------|-------------------|
----------------------12----|-------------------|-------------------|-------------------|


  W                   W                   W                   W                   W                 
-------------------|-------------------|-------------------|-------------------|-------------------|
-------------------|-------------------|-------------------|-------------------|-------------------|
-------------------|-------------------|-------------------|-------------------|-------------------|
-------------------|-------------------|-------------------|-------------------|-------------------|
-------------------|-------------------|-------------------|-------------------|-------------------|
-------------------|-------------------|-------------------|-------------------|-------------------|


  W                   W                   W                   W                   W                 
-------------------|-------------------|-------------------|-------------------|-------------------|
-------------------|-------------------|-------------------|-------------------|-------------------|
-------------------|-------------------|-------------------|-------------------|-------------------|
-------------------|-------------------|-------------------|-------------------|-------------------|
-------------------|-------------------|-------------------|-------------------|-------------------|
-------------------|-------------------|-------------------|-------------------|-------------------|


  W                   W                   W                  
-------------------|-------------------|-------------------||
-------------------|-------------------|-------------------||
-------------------|-------------------|-------------------||
-------------------|-------------------|-------------------||
-------------------|-------------------|-------------------||
-------------------|-------------------|-------------------||



Lead

     W                   W                   W                   W                 
E||-------------------|-------------------|-------------------|-------------------|
B||-------------------|-------------------|-------------------|-------------------|
G||-------------------|-------------------|-------------------|-------------------|
D||-------------------|-------------------|-------------------|-------------------|
A||-------------------|-------------------|-------------------|-------------------|
E||-------------------|-------------------|-------------------|-------------------|


  W                   W                   W                   W                   W                 
-------------------|-------------------|-------------------|-------------------|-------------------|
-------------------|-------------------|-------------------|-------------------|-------------------|
-------------------|-------------------|-------------------|-------------------|-------------------|
-------------------|-------------------|-------------------|-------------------|-------------------|
-------------------|-------------------|-------------------|-------------------|-------------------|
-------------------|-------------------|-------------------|-------------------|-------------------|


  W                   W                   W                   W                   W                 
-------------------|-------------------|-------------------|-------------------|-------------------|
-------------------|-------------------|-------------------|-------------------|-------------------|
-------------------|-------------------|-------------------|-------------------|-------------------|
-------------------|-------------------|-------------------|-------------------|-------------------|
-------------------|-------------------|-------------------|-------------------|-------------------|
-------------------|-------------------|-------------------|-------------------|-------------------|


  W                   W                   W                   W                   W                 
-------------------|-------------------|-------------------|-------------------|-------------------|
-------------------|-------------------|-------------------|-------------------|-------------------|
-------------------|-------------------|-------------------|-------------------|-------------------|
-------------------|-------------------|-------------------|-------------------|-------------------|
-------------------|-------------------|-------------------|-------------------|-------------------|
-------------------|-------------------|-------------------|-------------------|-------------------|


  W                   W                   W                   W                   W                 
-------------------|-------------------|-------------------|-------------------|-------------------|
-------------------|-------------------|-------------------|-------------------|-------------------|
-------------------|-------------------|-------------------|-------------------|-------------------|
-------------------|-------------------|-------------------|-------------------|-------------------|
-------------------|-------------------|-------------------|-------------------|-------------------|
-------------------|-------------------|-------------------|-------------------|-------------------|


  W                   W                   W                   W                   W                 
-------------------|-------------------|-------------------|-------------------|-------------------|
-------------------|-------------------|-------------------|-------------------|-------------------|
-------------------|-------------------|-------------------|-------------------|-------------------|
-------------------|-------------------|-------------------|-------------------|-------------------|
-------------------|-------------------|-------------------|-------------------|-------------------|
-------------------|-------------------|-------------------|-------------------|-------------------|


  W                   Q    E  E  Q     Q        W                   W                 
-------------------|-------------------------|-------------------|-------------------|
-------------------|-------------------------|-------------------|-------------------|
-------------------|-------------------------|-------------------|-------------------|
-------------------|-------7--7--L-----------|-------------------|-------------------|
-------------------|-------------------------|-------------------|-------------------|
-------------------|-------5--5--L----12\----|-------------------|-------------------|


  W                   W                   W                   W                   W                 
-------------------|-------------------|-------------------|-------------------|-------------------|
-------------------|-------------------|-------------------|-------------------|-------------------|
-------------------|-------------------|-------------------|-------------------|-------------------|
-------------------|-------------------|-------------------|-------------------|-------------------|
-------------------|-------------------|-------------------|-------------------|-------------------|
-------------------|-------------------|-------------------|-------------------|-------------------|


  W                   W                   W                   W                   W                 
-------------------|-------------------|-------------------|-------------------|-------------------|
-------------------|--------
Добавлено: 26.03.2012
Другие материалы по этой песне:

Страница создана 03.03.2012
http://primanota.ru/rtz/face-the-music-chords.htm
Привет, Гость.
Предлагаем пройти революционный курс по гитаре.
Подарок от PrimaNota.Ru, забирай!