PrimaNota.ru - самый крупный в мире бесплатный архив песенных текстов, аккордов, табулатур и нот


Rpwl - The Ugliest Man In The World The Ugly - таба, видео

Регистрация Запомнить меня
Войти через:  Facebook Google Twitter Vk Yandex Mail.ru

Rpwl - The Ugliest Man In The World The Ugly - таба, видео

Печатать
Просмотров: 59
                                          Artist - RPWL
                                         ***************
                            Song - The Ugliest Man In The World (The Ugly)
                           ************************************************
                                    Album - Beyond Man And Time
                                   *****************************
                                       Tabbed By - Ayreon77
                                      **********************



Section 1
**********
Heavy Part
-----------
  E
[--------------|---------------|--------------|-------------------]\
[--------------|---------------|--------------|-------------------] \
[--------------|---------------|--------------|-------------------]  \
[--------------|---------------|--------------|--s--4-2---0-------]  /X4
[--s------5----|--s---5-5------|--s---5-5---7-|-3\5-----4---0-----] /
[-3\7--7-----0-|-3\7------7--0-|-3\7------7---|---------------0-2-]/


----------------------------------------------------------------------
00:21
Section 2
**********
Picking Part
-------------

[-------12----14-|-------12----14-|-------12----14-|-17-------17-------]\
[-12-12----12----|-12-12----12----|-12-12----12----|----17-------17----] \
[----------------|----------------|----------------|-------16-------16-]  \ 
[----------------|----------------|----------------|-------------------]  X4
[----------------|----------------|----------------|-------------------] /
[----------------|----------------|----------------|-------------------]/


----------------------------------------------------------------------
00:41
Section 1 
**********
Heavy Part
-----------

----------------------------------------------------------------------

01:03 - Acoustic Guitar
-------------------------

VERSE 1
--------
Am         C     D                  F
  I Am The Link,   Between Good And Bad
Am       C              D                  Bm     F
Don't Be Afraid I'm The Ugliest Man In The Wo-----rld
Am                C      D                           F
  I Know You Feel Sorry, Too Late Too Look The Other Way
Am             C          D        Bm      F
Guess What Has Happened I Lost, My Disg----uise.

----------------------------------------------------------------------
01:43 
Section 1 X2
**********
Heavy Part 
----------

----------------------------------------------------------------------
VERSE 2
--------
Am                  C     D                   F
  I Don't Want Your Help,   I Don't Want Your Pity
Am         C       D             Bm    F
I,m Just A Mirror    You Have To Fi----nd
Am         C             D                    F
  Darkness Surrounds Me, I,m All You Tried To Forget
Am               C        D             Bm     F
So I Hide In The Forrest, Far From Your Wo-----rld.


----------------------------------------------------------------------
CHORUS
-------
 Brave You Are You Found My Hiding Place
[-------------------|-------------------]
[-------------------|-------------------]
[-------------------|-------------------]
[---7---5---9---5---|---7---5---9---5---]
[---5---3---7---3---|---5---3---7---3---]
[-------------------|-------------------]
                                                                
[--------------------------------------------------------------]
[-77777--55555--12-12-12-12-12--11-11-11-11-11--12-12-12-12-12-]
[-77777--55555--12-12-12-12-12--11-11-11-11-11--12-12-12-12-12-]
[--------------------------------------------------------------]
[----------------Not sure on this part?------------------------]
[--------------------------------------------------------------]

[------------------------]
[-99999--14-14-14-14-14--]
[-99999--14-14-14-14-14--]
[------------------------]
[------------------------]
[------------------------]



 Don't You See Me Look Into Your Face
[-------------------|-------------------]
[-------------------|-------------------]
[-------------------|-------------------]
[---7---5---9---5---|---7---5---9---5---]
[---5---3---7---3---|---5---3---7---3---]
[-------------------|-------------------]
                                          
[--------------------------------------------------------------]
[-77777--55555--12-12-12-12-12--11-11-11-11-11--12-12-12-12-12-]
[-77777--55555--12-12-12-12-12--11-11-11-11-11--12-12-12-12-12-]
[--------------------------------------------------------------]
[----------------Not sure on this part?------------------------]
[--------------------------------------------------------------]

[------------------------]
[-99999--14-14-14-14-14--]
[-99999--14-14-14-14-14--]
[------------------------]
[------------------------]
[------------------------]



 All Your Words Is Theres Not Good Enough
[-------------------|-------------------]
[-------------------|-------------------]
[-------------------|-------------------]
[---7---5---9---5---|---7---5---9---5---]
[---5---3---7---3---|---5---3---7---3---]
[-------------------|-------------------]

[--------------------------------------------------------------]
[-77777--55555--12-12-12-12-12--11-11-11-11-11--12-12-12-12-12-]
[-77777--55555--12-12-12-12-12--11-11-11-11-11--12-12-12-12-12-]
[--------------------------------------------------------------]
[----------------Not sure on this part?------------------------]
[--------------------------------------------------------------]

[------------------------]
[-99999--14-14-14-14-14--]
[-99999--14-14-14-14-14--]
[------------------------]
[------------------------]
[------------------------]


                                          
 All The Fasting Won't Be Bad Enough
[-------------------|-------------------]
[-------------------|-------------------]
[-------------------|-------------------]
[---7---5---9---5---|---7---5---9---5---]
[---5---3---7---3---|---5---3---7---3---]
[-------------------|-------------------]

[--------------------------------------------------------------]
[-77777--55555--12-12-12-12-12--11-11-11-11-11--12-12-12-12-12-]
[-77777--55555--12-12-12-12-12--11-11-11-11-11--12-12-12-12-12-]
[--------------------------------------------------------------]
[----------------Not sure on this part?------------------------]
[--------------------------------------------------------------]

[------------------------]
[-99999--14-14-14-14-14--]
[-99999--14-14-14-14-14--]
[------------------------]
[------------------------]
[------------------------]

To Show Your Real Face.

----------------------------------------------------------------------
03:14
Section 2 X4
**********
Picking Part
-------------

----------------------------------------------------------------------
03:34
Cool Synth Solo    Bm E  Am D
----------------   Bm D


Clean guitar strumming, plays something like this
strum down 2 times and up 1
repeat ad-lib till change 
 Bm                    E         Am                   D
[-7-7-7--7-7-7--7-7-7---s------|-5-5-5--5-5-5--5-5-5---s----s--]
[-7-7-7--7-7-7--7-7-7--7\9-9-9-|-5-5-5--5-5-5--5-5-5--5\7--7\5-]
[-7-7-7--7-7-7--7-7-7--7\9-9-9-|-5-5-5--5-5-5--5-5-5--5\7--7\5-]
[-9-9-9--9-9-9--9-9-9--7\9-9-9-|-7-7-7--7-7-7--7-7-7--5\7--7\5-]
[-9-9-9--9-9-9--9-9-9----------|-7-7-7--7-7-7--7-7-7-----------]
[-7------7------7--------------|-5------5------5---------------]


play this section 4 times then go to heavy part
  Bm             D   04:48               
[-------------------|-----------------]
[-7--7--7--7--7--7--|-----------------]
[-7--7--7--7--7--7--|-----------------]
[-9--9--9--9--9--7--|-0-4-2---0-------]
[-9--9--9--9--9--5--|-------4---0-----]
[-7--7--7--7--7-----|-------------0-2-]


     F#        G            A
[-2-2-2-2-|-3-3-3-3-|-5-5-5-5-5-5-5-5]
[-2-2-2-2-|-3-3-3-3-|-5-5-5-5-5-5-5-5]
[-3-3-3-3-|-4-4-4-4-|-6-6-6-6-6-6-6-6]
[-4-4-4-4-|-5-5-5-5-|-7-7-7-7-7-7-7-7]
[-4-4-4-4-|-5-5-5-5-|-7-7-7-7-7-7-7-7]
[-2-2-2-2-|-3-3-3-3-|-5-5-5-5-5-5-5-5]

The Truth 
Comes True
So Will


----------------------------------------------------------------------
05:17 
Section 1 X2
**********
Heavy Part 
----------

----------------------------------------------------------------------
05:27
VERSE 3
--------
Am                   C           D               F
  Don't You Like The Empty, It's You Seeking The Truth
   Am               C             D          Bm    F
So Don't Loose Your Mind When You Summon Bad Dr----eams
Am            C               D                    F
  A Jester Is Falling, People Laugh And Don,t Understand
      Am         C         D                       Bm    F
There Might Be A Seed, But Still Theres Nothing To Sh----ow.


----------------------------------------------------------------------
CHORUS - Play guitar same as 1st chorus
-------

Brave You Are You Found My Hiding Place

Can't You See Me Look Into Your Face

All Your Love It Won't Be Deep In Love

Do You Harbour Your Not Pure In Love

Show Your Real Face.


----------------------------------------------------------------------
06:47
Section 2 X4 repeat this picking section and fade
**********
Picking Part
-------------


A Great Track, Not 100% On the Lyrics, Its Hard to Understand Him In Parts.

Enjoy..........
Добавлено: 27.01.2014
Другие материалы по этой песне:
  • Аккорды и текст

Страница создана 27.01.2014
http://primanota.ru/rpwl/the-ugliest-man-in-the-world-the-ugly-chords.htm
Привет, Гость.
Предлагаем пройти революционный курс по гитаре.
Подарок от PrimaNota.Ru, забирай!