PrimaNota.ru - самый крупный в мире бесплатный архив песенных текстов, аккордов, табулатур и нот


Rpwl - Hole In The Sky Part 3 - таба, видео

Регистрация Запомнить меня
Войти через:  Facebook Google Twitter Vk Yandex Mail.ru

Rpwl - Hole In The Sky Part 3 - таба, видео

Печатать
Просмотров: 97
                                           Artist - RPWL
                                          ***************
                                     Song - Hole In The Sky Pt3
                                    ****************************
                                      Album - God Has Failed
                                     ************************
                                       Tabbed By - Ayreon77
                                      **********************


INTRO
******
 Electric Guitar has slight delay to it.
 *************Play 2 times**************||***3rd time play this***
[---------|---------|---------|---------||---------|---------|---]
[-4-----4-|-3-----3-|---------|-1-------||-4-----4-|-3-----3-|-6-]
[---------|---------|-6-----6-|---0---0-||---------|---------|-6-]
[---6-3---|---6-3---|---6-3---|-----1---||---6-3---|---6-3---|-6-]
[---------|---------|---------|---------||---------|---------|-4-]
[---------|---------|---------|---------||---------|---------|---]

Play above picking with the verse below.
VERSE
*******
I made up my mind
I promised I'd follow wherever you're going to
I can't see your face in the clouds.

SOLO
*****
The versy first note sounds like he, 
depresses the whammy and then brings it up.
                                        b  b  rb  b  rb   h
[---b---------b----rb---brb-|--h--8-11-11-11--11-11--11-10-11----]
[--11------8-11---11--9-8---|-8-9--------------------------------]
[---------------------------|----------------------------------8-]
[---------------------------|------------------------------------]
[---------------------------|------------------------------------]
[---------------------------|------------------------------------]

                   
[-----------------|-----|-----------|---------|-------|-----------]
[-----b-----h-----|-----|-----------|---------|-------|-----------]
[-10-10-10-8-10-7-|-----|-----------|----s----|----s--|--s--------]
[-----------------|---x-|-----0-1---|-0-1\3-1-|-3-3\5-|-3\1-1---s-]
[-----------------|--x--|-3-------1-|---------|-------|-------5-\-]
[-----------------|-x---|-----------|---------|-------|-----------]

                                  s      s      s        s         s
[-----------|-------|--------|-3-4\6--4-6\8--6-8\10--8-10\11--10-11\13-]
[-----h--11-|--h----|--h--11-|-----------------------------------------]
[----7-8----|-7-8---|-7-8----|-----------------------------------------]
[-10--------|-----8-|--------|-----------------------------------------]
[-----------|-------|--------|-----------------------------------------]
[-----------|-------|--------|-----------------------------------------]
                               hold bend
                                  |--|--|  |--|--|
       s         s                b  |  |  b  |  |  rb
[-11-13\15--13-15\16--15-16-18-|-18--18-18-18-18-18-18-]
[------------------------------|-----------------------]
[------------------------------|-----------------------]
[------------------------------|-----------------------]
[------------------------------|-----------------------]
[------------------------------|-----------------------]

             p  p
[-15-16-18-18-16-15----15----|------h--p-------------------------------]
[-------------------18----16-|-16-15-16-15----15-------------h--p------]
[----------------------------|-------------17----17-15-13--13-15-13-12-]
[----------------------------|-----------------------------------------]
[----------------------------|-----------------------------------------]
[----------------------------|-----------------------------------------]

         UB UB UB UB   UB UB UB UB   UB UB UB UB   UB UB UB UB
[------|--8--8--8--8-|-10-10-10-10-|-11-11-11-11-|-13-13-13-13-]
[------|-11-11-11-11-|-13-13-13-13-|-14-14-14-14-|-16-16-16-16-]
[----x-|-------------|-------------|-------------|-------------]
[---x--|-------------|-------------|-------------|-------------]
[--x---|-------------|-------------|-------------|-------------]
[-x----|-------------|-------------|-------------|-------------]

  UB                         UB                           b r
[-15-18--b-18-----b-18--b-18-15-18--b-18--19-19-19-18-20-20---20-]
[-18----18----18-18----18----18----18----------------------------]
[----------------------------------------------------------------]
[----------------------------------------------------------------]
[----------------------------------------------------------------]
[----------------------------------------------------------------]
                        hold note
                          |--
         b  b             b |   rb   p
[-18-20-20-20-18-|-18-20-20-20--20-20-18--------------------16--15---------]
[----------------|-----------------------20-16--15--18--16----------16--15-]
[----------------|---------------------------------------------------------]
[----------------|---------------------------------------------------------]
[----------------|---------------------------------------------------------]
[----------------|---------------------------------------------------------]


[----------]
[-16-15-13-]
[----------]
[----------]
[----------]
[----------]


This a cool track to play too. Enjoy............
Добавлено: 07.10.2013
Вам также может быть интересно:
Другие материалы по этой песне:
  • Аккорды и текст

Страница создана 07.10.2013
http://primanota.ru/rpwl/hole-in-the-sky-part-3-chords.htm
Привет, Гость.
Предлагаем пройти революционный курс по гитаре.
Подарок от PrimaNota.Ru, забирай!