PrimaNota.ru - самый крупный в мире бесплатный архив песенных текстов, аккордов, табулатур и нот


Rpwl - Beyond Man And Time - таба, видео

Регистрация Запомнить меня
Войти через:  Facebook Google Twitter Vk Yandex Mail.ru

Rpwl - Beyond Man And Time - таба, видео

Печатать
Просмотров: 91
Уроки эстрадного вокала в Санкт-Петербурге
                                          Artist - RPWL
                                         ***************
                              Song - Beyond Man And Time (Time Blind)
                             *****************************************
                                    Album - Beyond Man And Time
                                   *****************************
                                       Tabbed By - Ayreon77
                                      **********************
 

GUITAR SOLO 1
**************
 Guitar 1
   b r      b      s     b    p                 s
[-13---13--12-12-13\-s-|-8---6-5--p----------|-8\10-10--5-5-------s------]
[-------------------8\-|---------6-3----h-p--|---------------6-6-6\8-8-5-]
[----------------------|-------------3-2-3-2-|---------------------------]
[----------------------|---------------------|---------------------------]
[----------------------|---------------------|---------------------------]
[----------------------|---------------------|---------------------------]

 Guitar 1                                     s        
[--s-------|---------------------|------s----6\8-6-]
[-5\6-6--3-|---------------------|--h--6\8-6-------]
[----------|--p------------------|-5-7-------------]
[----------|-8-7------------s-s--|-----------------]
[----------|-----10-8------5\8/5-|-----------------]
[----------|----------10-8-------|-----------------]
 
 Guitar 1
    p                                        b r      b      s
[-12-8---p-------p------------------------|-13---13--12-12-13\-s-]
[------10-6--h--6-5-----------------------|-------------------8\-]
[-----------5-7-----7-5-------h------h----|----------------------]
[-----------------------8-7--7-8-5--7-8-3-|----------------------]
[-----------------------------------------|----------------------]
[-----------------------------------------|----------------------]


 Guitar 1                         b
[---p---------------------------|-8--8-6-5----s------------|--------]
[-15-11-------------------------|------------6\8-8----s--s-|--------]
[-------12---s------------------|--------------------5\7-\-|--s---s-]
[----------12\8-5--s------------|--------------------------|-7\10-\-]
[-----------------6\5------s----|--------------------------|--------]
[---------------------6-3-1\3-1-|--------------------------|--------]
|                                                                   |
|Guitar 2 Clean Sound                               s               |
[------------------------------------s-----s-------8\---------------]
[-----------------------------------6\8---6\8-----------------------]
[---------------------------------------7---------------------------]
[-------------------------------------------------------------------]
[-------------------------------------------------------------------]
[-------------------------------------------------------------------]


----------------------------------------------------------------
VERSE 1 - SECTION 1                            
******** 
 (Play this picking pattern throughout the verses. CAPO 5th fret)
  --------------------------------------------------------------
 Am                          Bb
[-------5------------5-----|-------5------------5-----]
[-5-------5----8-------5---|-6-------6----6-------6---]
[---5-------5----5-------5-|---7-------7----7-------7-]
[-----7------------7-------|-----8------------8-------]
[--------------------------|--------------------------]
[--------------------------|--------------------------]X4

Bb                    Am               
Here I am waiting for nothing 
Bb                   Am
Beyond your time and space
Bb              Am                   
You may ask for reason 
Bb                               Am-----|
What accord when I lived at your place  | 
   |------------------------------------|
  Am                        Em
[-------8-----------8-----|-------10-----------10-----]
[-----5---5-------5---5---|-----8----8-------8----8---]
[---5-------5---5-------5-|---9--------9---9--------9-]
[-7-----------7-----------|-9------------9------------]
[-------------------------|---------------------------]
[-------------------------|---------------------------]

  Am                                
[---------12--------------12------|----]
[------10----10--------10----10---|-10-]
[----9----------9----9----------9-|-10-]
[-10--------------10--------------|-12-]
[---------------------------------|-12-]
[---------------------------------|-10-]

        
----------------------------------------------------------------
SECTION 1
 (Play this picking pattern throughout the verses. CAPO 5th fret)
  --------------------------------------------------------------
 Am                          Bb
[-------5------------5-----|-------5------------5-----]
[-5-------5----8-------5---|-6-------6----6-------6---]
[---5-------5----5-------5-|---7-------7----7-------7-]
[-----7------------7-------|-----8------------8-------]
[--------------------------|--------------------------]
[--------------------------|--------------------------]X4

VERSE 2
********
Bb                         Am
  I bet I don't talk round corners
          Bb                   Am
I saw the just man telling his lies
Bb                    Am
Monochrome what was multicolored
Bb                     Am
More lies in creeps in disguise


----------------------------------------------------------------
 (Play this picking pattern throughout the Chorus. CAPO 5th fret)
  --------------------------------------------------------------
 Guitar 1 SECTION 2       
                A world with no new light
      Am                        Em
[-----------8-----------8-----|-------10-----------10-----]
[---------5---5-------5---5---|-----8----8-------8----8---]
[-------5-------5---5-------5-|---9--------9---9--------9-]
[-----7-----------7-----------|-9------------9------------]
[-----------------------------|---------------------------]
[-----------------------------|---------------------------]
|                                                         |
|Guitar 2                                                 |
[---------------------------------------------------------]
[---------------------------------------------------------]
[---------------------------------------------------------]
[--h------------------------------------------------------]
[-5-7-----------------------------------------------------]
[-----5---------------------------------------------------]

               A mind      with      no will
 Guitar 1
[--------------12--------------12------|-------10-----------10-----]
[-----------10----10--------10----10---|-----8----8-------8----8---]
[---------9----------9----9----------9-|---9--------9---9--------9-]
[------10--------------10--------------|-9------------9------------]
[--------------------------------------|---------------------------]
[--------------------------------------|---------------------------]
|                                                                  |
|Guitar 2                                                          |
[------------------------------------------------------------------]
[------------------------------------------------------------------]
[------------------------------------------------------------------]
[--h---------------------------------------------------------------]
[-5-7--------------------------------------------------------------]
[-----5------------------------------------------------------------]


 Guitar 1      A will without power  
      Am                        Em
[-----------8-----------8-----|-------10-----------10-----]
[---------5---5-------5---5---|-----8----8-------8----8---]
[-------5-------5---5-------5-|---9--------9---9--------9-]
[-----7-----------7-----------|-9------------9------------]
[-----------------------------|---------------------------]
[-----------------------------|---------------------------]
|                                                         |
|Guitar 2                                                 |
[---------------------------------------------------------]
[---------------------------------------------------------]
[---------------------------------------------------------]
[--h------------------------------------------------------]
[-5-7-----------------------------------------------------]
[-----5---------------------------------------------------]

                To sail   to   the  sea
 Guitar 1
[--------------12--------------12------|----]
[-----------10----10--------10----10---|-10-]
[---------9----------9----9----------9-|-10-]
[------10--------------10--------------|-12-]
[--------------------------------------|-12-]
[--------------------------------------|-10-]
|                                           |
|Guitar 2                                   |
[-------------------------------------------]
[-------------------------------------------]
[-------------------------------------------]
[--h----------------------------------------]
[-5-7---------------------------------------]
[-----5-------------------------------------]


-----------------------------------------------------------------
SECTION 3
  (Play this picking pattern throughout the Bridge. CAPO 5th fret)
  ---------------------------------------------------------------
  This is low and kinda hard to work out, this is what i figured.
 Bb             Gm              Eb
[--------------|--------------|---------6----s------]
[---6-----6--s-|---6-----8--s-|-----8-----6-6\8-----]
[-----7-----7\-|-----7-----7\-|---8---8---------7---]
[-8-----8------|-8-----8------|-8-----------------8-]
[--------------|--------------|---------------------]
[--------------|--------------|---------------------]

BRIDGE
*******
Bb       Gm
See me beyond man and time
Eb                          Bb
Loneliness is fine right to be

When honesty ends
  Gm
I want to be blind
        Eb                     Bb
There's nothing else I want to see

Brought into this world
       Gm
With a sole of a child                
   C                 Eb 
To see what has been reviled

               s
[-------|--s--5\3-]
[--s--8-|-3\4-----]
[-5\7---|---------]
[-------|---------]
[-------|---------]
[-------|---------]
     C
This world could have been a better place

[-----3---6-]
[--s--------]
[-3\5-------]
[-----------]
[-----------]
[-----------]
                    Bb
And my ears love to see

----------------------------------------------------------------
SLIDE - Bb Eb Bb C Eb Bb C Eb 
******
    s            s     s      s   s            s      s  s    s   s  s
[-13\15--13-11-10\-|-11\13--13\15-\-8-|-8-10-10\11--11\13\-10-\-6-\-1\3-]
[------------------|------------------|---------------------------------]
[------------------|------------------|---------------------------------]
[------------------|------------------|---------------------------------]
[------------------|------------------|---------------------------------]
[------------------|------------------|---------------------------------]


VERSE 3
********          See above for picking SECTION 1
----------------------------------------------------------------
 (Play this picking pattern throughout the verses. CAPO 5th fret)
  --------------------------------------------------------------
Bb                         Am
  Drowned in a sea full of misery
Bb                       Am
Unable to dance in their mind
Bb                        Am
Caged in the past and the future
Bb                        Am
So I made my way into the night

VERSE 4
******** 
Bb                         Am
  I bet I don't talk round corners
      Bb                Am
Being equal but falling apart
Bb                     Am
I saw disgust in there being
  Bb                        Am
A moment when I chose to be blind


                  See Above for picking SECTION 2
----------------------------------------------------------------
 (Play this picking pattern throughout the Chorus. CAPO 5th fret)
  --------------------------------------------------------------
CHORUS                                    
*******
Am               Em
 A world with no light
Am               Em
  A mind with no will
Am                   Em
  I know when there's blowing
               Bb
To sail to the sea


                  See Above for picking SECTION 3
----------------------------------------------------------------
  (Play this picking pattern throughout the Bridge. CAPO 5th fret)
  ---------------------------------------------------------------
BRIDGE
*******
See me beyond man and time
Loneliness is fine right to be
when honesty ends
I want to be blind
There's nothing else I want to see
Brought into this world
With a sole of a child
To see what has been reviled
This world could have been a better place
And my ears love to see


----------------------------------------------------------------
05:17
GUITAR SOLO 2
**************
   b r      b      s     b    p                
[-13---13--12-12-13\-s-|-8---6-5-------------]
[-------------------8\-|---------6-3----h-p--]
[----------------------|-------------3-2-3-2-]
[----------------------|---------------------]
[----------------------|---------------------]
[----------------------|---------------------]

   s        s     s
[-8\10-10-10\5-5-5\8-3-1-0-0-1--s--s-|---------------------]
[------------------------------1\3-\-|---------------------]
[------------------------------------|--p------------------]
[------------------------------------|-8-7------------s-s--]
[------------------------------------|-----10-8------5\8/5-]
[------------------------------------|----------10-8-------]

             s        p
[------s----6\8-6-|-12-8---p-------p---------------------------------]
[--h--6\8-6-------|------10-6--h--6-5--------------------------------]
[-5-6-------------|-----------5-7-----7-5-------h----s-----p-----s---]
[-----------------|-----------------------8-7--7-8--8\13-12-10-12\15-]
[-----------------|--------------------------------------------------]
[-----------------|--------------------------------------------------]

   b r     b     b       b      br        Low
[-13---13-12-12-12-15-|-20--18-17--------|---h-----br--------------------]
[---------------------|-----------18--br-|-15-16--15----------h----------]
[---------------------|--------------17--|------------12-14-14-15--14----]
[---------------------|------------------|----------------------------15-]
[---------------------|------------------|-------------------------------]
[---------------------|------------------|-------------------------------]


A excellent track, kinda difficult. Hope someone finds it useful.
Добавлено: 01.10.2013
Другие материалы по этой песне:
  • Аккорды и текст

Страница создана 01.10.2013
http://primanota.ru/rpwl/beyond-man-and-time-chords.htm
Привет, Гость.
Предлагаем пройти революционный курс по гитаре.
Подарок от PrimaNota.Ru, забирай!