PrimaNota.ru - самый крупный в мире бесплатный архив песенных текстов, аккордов, табулатур и нот


Rozwell Kid - Sick Jackets - таба, видео

Регистрация Запомнить меня
Войти через:  Facebook Google Twitter Vk Yandex Mail.ru

Rozwell Kid - Sick Jackets - таба, видео

Печатать
Просмотров: 135
Уроки эстрадного вокала в Санкт-Петербурге
-------------------------------------------------------------------------------
                             Sick Jackets - Rozwell Kid
-------------------------------------------------------------------------------
Tabbed by:
E-mail:

Tuning: Half Step Down

Intro
e|--------------------------------------------------------------------------------------------|
B|--------------------------------------------------------------------------------------8-8-7-|
G|---------------------9-9------------------------------------------------9p7-9b7-9b7-9-------|
D|---9--12--9--9---9-10---12----9--12--9--9-10b12b10-9-5/7----9--12-9--9----------------------|
A|-10-10-----10---0-0---------10-10-----10-0----------0-----10-10----10-----------------------|
E|--------------------------------------------------------------------------------------------|

e|---------------------------------------------------------------------------|
B|---------------------------------------------------------------------------|
G|--------------9-9-9-9-9-9-9-9----------------------------------------------|
D|---9--12-9--9--------------------------------------------------------------|
A|-10-10----10--7-7-7-7-7-7-7-7----------------------------------------------|
E|---------------------------------------------------------------------------|

Part 2
e|-------------------------------------------------------------------------------------|
B|-------------------------------------------------------------------------------------|
G|-------------------------------------------------------------------------------------|
D|5-5--5-5-5-5-5-7-7-7-7-5-5-5--5--5-5-5-9-9-9-9-9-9-9-9-9-9-7--7-7-7-7-7-7-7--7-7-7-7-|
A|5-5--5-5-5-5-5-7-7-7-7-3-3-3--5--5-5-5-9-9-7-7-7-7-7-7-7-7-7--7-7-7-7-5-5-5--5-5-5-5-|
E|3-3--3-3-3-3-3-5-5-5-5-3-3-3--3--3-3-3-7-7-7-7-7-7-7-7-7-7-5--5-5-5-5-5-5-5--5-5-5-5-|

e|---------------------------------------------------------------------------| back to beginning of part 2
B|---------------------------------------------------------------------------| dont play second 
G|---------------------------------------------------------------------------| move onto part 3
D|5-5--5-5-5-5-5-7-7-7-7-5-5-5-----------------------------------------------|
A|5-5--5-5-5-5-5-7-7-7-7-3-3-3-----------------------------------------------|
E|3-3--3-3-3-3-3-5-5-5-5-3-3-3-----------------------------------------------|

part 3
e|---------------------------------------------------------------------------|
B|---------------------------------------------------------------------------|
G|---------------------------------------------------------------------------|
D|---------------------------------------------------------------------------|
A|-10-10-10-10-10-10-9-9-7-7-7-7-7-7-5-2-------------------------------------|
E|-8--8--8--8--8--8--7-7-5-5-5-5-5-5-3-0-----/12~-12-12-0--------------------|

e|--------------------------------------------------------------------------------|
B|--------------------------------------------------------------------------------|
G|--------------------------------------------------------------------------------|
D|5--5-5-5-5-5-0-7--7-7-7-7-7-7-x3-------5--5-5-5-5-5-0-7-7-----------------------|
A|5--5-5-3-3-3-0-7--7-7-7-7-7-7----------5--5-5-3-3-3-0-7-7-----------------------|
E|3--3-3-3-3-3-0-5--5-5-5-5-5-5----------3--3-3-3-3-3-0-5-5-----------------------|back to intro

Solo
e|------------------------------------------------------------------------------------|
B|-----------------5---888-7-7-5-----5----888-7-7-5------5---------8-7-----8-7-7-7/8-8|
G|444-5-5-5/7-7-7-7-7-4---------7-7-7-7-4-----------7-7-7-7-4----4--------4-----------|
D|------------------------------------------------------------7-7------7-7------------|
A|------------------------------------------------------------------------------------|
E|------------------------------------------------------------------------------------|

e|------------------------------------------------------------------------------------------------------|
B|12b14b12-10-12-10-8-10---8---12b14b12-10-12-10-8-10---8--12-12b14b12-10-12-10-8-10---------10b12b12---|
G|----------------------9-9-9------------------------9-9-7--------------------------9-----------------11|
D|------------------------------------------------------------------------------------7/9-9-9-----------|
A|------------------------------------------------------------------------------------------------------|
E|------------------------------------------------------------------------------------------------------|

Outro
e|------------------------------------------------------------------------------------|
B|------------------------------------------------------------------------------------|
G|------------------------------------------------------------------------------------|
D|5--5-5-9-9-9-9--9-9-9-9-9-9-9-------------------------------------------------------|
A|5--5-5-9-9-9-7--7-7-7-7-7-7-7-------------------------------------------------------|
E|3--3-3-7-7-7-7--7-7-7-7-7-7-7-------------------------------------------------------|
************************************

| /   slide up
| \   slide down
| h   hammer-on
| p   pull-off
| ~   vibrato
| +   harmonic
| x   Mute note
| b   Bend
| pb  Pre-bend
| br  Bend release
| pbr Pre-bend release
| brb Bend release bend

************************************
Добавлено: 23.06.2016
Другие материалы по этой песне:
  • Аккорды и текст

Страница создана 23.06.2016
http://primanota.ru/rozwell-kid/sick-jackets-chords.htm
Привет, Гость.
Предлагаем пройти революционный курс по гитаре.
Подарок от PrimaNota.Ru, забирай!