PrimaNota.ru - самый крупный в мире бесплатный архив песенных текстов, аккордов, табулатур и нот


Rozi Plain - See My Boat - таба, видео

Регистрация Запомнить меня
Войти через:  Facebook Google Twitter Vk Yandex Mail.ru

Rozi Plain - See My Boat - таба, видео

Печатать
Просмотров: 111
Rozi Plain website: http://roziplain.co.uk/
Tabbed by: Kadima
E-mail:johu2000-us@yahoo.de

Standard Tuning, Capo on 4th

guitar 1:

  |1---2---3---4---|1---2---3---4---|1---2---3---4---|1---2---3---4---|

 e|------7-------7-|------7-------5-|------5-------5-|------5-------0-| p
 B|--7-------7-----|--7-------7-----|--7-------7-----|--7-------7-----| a
 G|----------------|----------------|----------------|----------------| r
 D|0---0---0---0---|0---0---0---0---|0---0---0---0---|0---0---0---0---| t
 A|----------------|----------------|----------------|----------------|
 E|----------------|----------------|----------------|----------------| A

 e|------7-------7-|------7-------5-|------5-------5-|------5---------| p
 B|--7-------7-----|--7-------7-----|--7-------7-----|--7-------7---5-| a
 G|----------------|----------------|----------------|----------------| r
 D|0---0---0---0---|0---0---0---0---|0---0---0---0---|0---0---0---0---| t
 A|----------------|----------------|----------------|----------------| 
 E|----------------|----------------|----------------|----------------| A'

 e|--2-------2-----|--2-------2-----|--2-------2-----|--2-------2-----| p
 B|------5-------5-|------5-------5-|------5-------5-|------5-------5-| a
 G|----------------|----------------|----------------|----------------| r
 D|----------------|----------------|----------------|----------------| t
 A|0---0---0---0---|0---0---0---0---|----------------|----------------|
 E|----------------|----------------|3---3---3---3---|3---3---3---3---| B

  part A' = part A right in front of part B

  order: A-A-B|A-A-B-A|A-A-B-A|A-A-B-A|B-A-A-B-B-A-A|A-A-B-A|B-A-A-B-B|
  + end on 10th fret on e-string

guitar 2 (sometimes played simultaneously to part A):

 e|----------------|----------------|----------------|----------------|
 B|----------------|----------------|----------------|----------------|
 G|----------------|----------------|----------------|----------------|
 D|----------0---2-|--4---2---0-----|----------0---2-|--0-------------|
 A|--0---2---------|--------------2-|--0---2---------|------2---0-----|
 E|----------------|----------------|----------------|----------------|
Добавлено: 08.07.2013
Другие материалы по этой песне:
  • Аккорды и текст

Страница создана 08.07.2013
http://primanota.ru/rozi-plain/see-my-boat-chords.htm
Привет, Гость.
Предлагаем пройти революционный курс по гитаре.
Подарок от PrimaNota.Ru, забирай!