PrimaNota.ru - самый крупный в мире бесплатный архив песенных текстов, аккордов, табулатур и нот


Royksopp - Tricky Tricky - аккорды и текст, видео

Регистрация Запомнить меня
Войти через:  Facebook Google Twitter Vk Yandex Mail.ru

Royksopp - Tricky Tricky - аккорды и текст, видео

Печатать
Просмотров: 151
Tricky Tricky
Royksopp
Song: Tricky Tricky
Band: Röyksopp (ft. Karin Dreijer Andersson)
Album: Junior
Year: 2009
Tabber: beranger80@hotmail.com



Intro (0:00)

Bm Bm A Bm



Verse (0:13)

Bm
Six afraid of seven 'cause seven, eight, nine
Bm        
I'm about to lose it the second time
A
Staring at the wall hour after hour
Bm
Running up and down over and over



Bridge (0:27)

Bm Bm A Bm



Chorus (0:40)

Bm
It's a tricky, tricky, this little one, two
Bm
Well, if it is a lunatic we'll name it after you
A
Put it in your pocket and pick it up
Bm
We're here to entertain, show them what you've got



Bridge (0:54)

Bm Bm A Bm



Verse (1:07)

Bm
Six afraid of seven 'cause seven, eight, nine
Bm
I'm afraid of losing the pieces I find
A
If I was created equal is this what I get?
Bm
A bunch of stories to interpret



Solo (1:20)

e------------------------------|
b------------------------------|
g--11--------------------------|
d-----11-12-9---9-11-12-11-12--|
a------------------------------|
e------------------------------|x2

e----------------------------|
b----------------------------|
g--12------------------------|
d-----14-10-----12-10--------|
a-----------12--------14-12--|
e----------------------------|

e-------------------------|
b-------------------------|
g-------------------------|
d-------------------------|
a--9-6-4-2---2-4-5-4-5-4--|
e-------------------------|



Verse (1:34)

Bm
Ready to rock it like rock 'n' roll
Bm
You are the flower in glittering gold
A
Sleeping in the palm, the palm of my hand
Bm
They show you who to follow, it looks like a man



Solo (1:47)

e------------------------------|
b------------------------------|
g--11--------------------------|
d-----11-12-9---9-11-12-11-12--|
a------------------------------|
e------------------------------|x2

e----------------------------|
b----------------------------|
g--12------------------------|
d-----14-10-----12-10--------|
a-----------12--------14-12--|
e----------------------------|

e-------------------------|
b-------------------------|
g-------------------------|
d-------------------------|
a--9-6-4-2---2-4-5-4-5-4--|
e-------------------------|



Bridge (2:14)

Bm Bm A Bm
Bm Bm A Bm
Bm Bm A Bm



Verse (2:41)

Bm
Six afraid of seven 'cause seven, eight, nine
Bm
I'm about to lose it the second time
A
Staring at the wall hour after hour
Bm
Running up and down over and over



Bridge (2:54)

Bm Bm A Bm



Verse (3:08)

Bm
Ready to rock it like rock 'n' roll
Bm
You are the flower in glittering gold
A
Sleeping in the palm, the palm of my hand
Bm
They show you who to follow, it looks like a man



Solo (3:21)

e------------------------------|
b------------------------------|
g--11--------------------------|
d-----11-12-9---9-11-12-11-12--|
a------------------------------|
e------------------------------|x2

e----------------------------|
b----------------------------|
g--12------------------------|
d-----14-10-----12-10--------|
a-----------12--------14-12--|
e----------------------------|

e-------------------------|
b-------------------------|
g-------------------------|
d-------------------------|
a--9-6-4-2---2-4-5-4-5-4--|
e-------------------------|



Bridge (3:48)

Bm Bm A Bm
Bm Bm A Bm
Bm Bm A Bm



Break (4:29)

Bm



New chords (4:37)

A C G A



Chorus (4:49)

A
It's a tricky, tricky, this little one, two
C
Well, if it is a lunatic we'll name it after you
G
Put it in your pocket and pick it up
A
We're here to entertain, show them what you've got



Bridge (5:03)

A C G A 



Outro (5:16)

A
Ready to rock it like rock 'n' roll
C
You are the flower in glittering gold
G
Sleeping in the palm, the palm of my hand
A                                             A
They show you who to follow, it looks like a man
C                 G    A
It looks like a man
Добавлено: 09.08.2015
Другие материалы по этой песне:
  • Аккорды и текст

Страница создана 09.08.2015
http://primanota.ru/royksopp/tricky-tricky-chords.htm
Привет, Гость.
Предлагаем пройти революционный курс по гитаре.
Подарок от PrimaNota.Ru, забирай!