PrimaNota.ru - самый крупный в мире бесплатный архив песенных текстов, аккордов, табулатур и нот


Royal Trux - Stop - таба, видео

Регистрация Запомнить меня
Войти через:  Facebook Google Twitter Vk Yandex Mail.ru

Royal Trux - Stop - таба, видео

Печатать
Просмотров: 47
-------------------------------------------------------------------------------
                              Stop - Royal Trux
-------------------------------------------------------------------------------
Tuning:EADGbe


Piano Intro transcribed to guitar
e|--------------------------|
B|--------------------------|
G|-------14-14-----16b18~~~-|
D|-14h16-------16-----------|
A|--------------------0~~~~-|
E|--------------------------|

Verse Chords:
A E | A E | A G D | A G D | B E | A G | E E | E E |

A~~~~                    E~~~~~~~
     Change partners and dance~~~
A~~~~                  E~~~~~~~~~
     You don't stand a chance~~~~ to
A~~~~        G~~~~       D~~~~
Make it from here to the door~~~~

But if you
A              G            D~~~~
Look, you will find there's so many ways around it
B~~~~~            E~~~~~
You don't have to go-ohh - And
A~~~~~         G~~~~
All~~~~ that I have to say - is
E~~~~               E~~~~
Nothin~~~~ when you look at it
E~~~~~                          E
Can it get you?~~~ And then you stop


Bridge chords! With a solo on top

C#m | Fm | C#m | Fm |
D   | B  | E   | E  |

                                                                    quick tremolo pick those 19's |
e|---------------------------------------------------------------------------|                    |
B|------------------------------------------17~~19--19--19p17----17-19-19~~--|<___________________J
G|-------14--14h16b18~~~-16p14--------------------------------18-------------|
D|-14h16-----------------------16p14-16~~~-----------------------------------|
A|---------------------------------------------------------------------------|
E|---------------------------------------------------------------------------|

e|----------------------------------------------------------------------------------|
b|-19~~-15-16-17-14-14--------------------------------------------------------------|
G|---------------------16b18~~b16-14h16p14-14------------------------------16b18b16-|
D|---------------------------------------------16-14h16-16~-16----------14----------|
A|-------------------------------------------------------------14h15h16-------------|
E|----------------------------------------------------------------------------------|

e|------------------------------------------------------------------------------|
b|------------------------------------------------------------------------------|
G|-14---------16~~16-16-16-14-14-13---------------------------------------------|
D|----16~~-16-----------------------16~b17b16~-14-14-14-14-16----------------14-|
A|------------------------------------------------------------14-14-14-14-16----|
E|------------------------------------------------------------------------------|

e|--------------------------------------------------------------------------------------------|
b|--------------------------------------------------------------------------------------------|
G|----------------------------------16--------------------------------------------------------|
D|-16b18-18b16-14----14-16-14-16/18----16h18~-16-14-------14-------14----16b18b16-14----14-16-|
A|----------------16--------------------------------14h16----14h16----16-------------16-------|
E|--------------------------------------------------------------------------------------------|
Добавлено: 22.05.2016
Другие материалы по этой песне:
  • Аккорды и текст

Страница создана 22.05.2016
http://primanota.ru/royal-trux/stop-chords.htm
Привет, Гость.
Предлагаем пройти революционный курс по гитаре.
Подарок от PrimaNota.Ru, забирай!