PrimaNota.ru - самый крупный в мире бесплатный архив песенных текстов, аккордов, табулатур и нот


Royal Trux - Call Out The Lions - таба, видео

Регистрация Запомнить меня
Войти через:  Facebook Google Twitter Vk Yandex Mail.ru

Royal Trux - Call Out The Lions - таба, видео

Печатать
Просмотров: 79
There's a solo over the 2nd chorus that I haven't yet tabbed but it's mostly high string adlibbing. 


Intro Guitar Melody (when you play this later, omit the 7 9 6 9 low string part)
e|-------------------------------------|---------------------------------------------|
b|-12/14~ 12---------------------------|---7-9~------------7--------------4-5-4------|
G|------------14-11-11/13~/8~----------|-8~------8~-7-6-6/8--8-6-4~~--4-5-------5-4~-|
D|-------------------------------------|---------------------------------------------|
A|---------------------------------6-9-|---------------------------------------------|
E|-----------------------------7-9-----|---------------------------------------------|


Main Riff      repeat this part until...
e|-------------------------------------|
b|-------------------------------------|
G|-------------------/6h4~~------------|
D|-------------------------------------|
A|-4~-p2-4---2h4p2h4-------------------|
E|-------------------------------------|


(bridge all power chords)
F                 Eb
  I know you love    your daddy
D                 A
  I know you love    your mom


(chorus full bar chords)
E~~~~~            Fm~~~~~~~
      You are the music
                 A~~~~~~~~
Don't let no one tell you
               E~~~~~~    E/Esus4/E~~~~
That you got a job to do, cant you hear it?
Добавлено: 07.06.2016
Другие материалы по этой песне:
  • Аккорды и текст

Страница создана 07.06.2016
http://primanota.ru/royal-trux/call-out-lions-chords.htm
Привет, Гость.
Предлагаем пройти революционный курс по гитаре.
Подарок от PrimaNota.Ru, забирай!