PrimaNota.ru - самый крупный в мире бесплатный архив песенных текстов, аккордов, табулатур и нот


Royal Hoax - Streets Of Chicago - таба, видео

Регистрация Запомнить меня
Войти через:  Facebook Google Twitter Vk Yandex Mail.ru

Royal Hoax - Streets Of Chicago - таба, видео

Печатать
Просмотров: 71
Уроки эстрадного вокала в Санкт-Петербурге
-------------------------------------------------------------------------------
                            Streets of Chicago- Royal Hoax
-------------------------------------------------------------------------------
Tabbed by: whovian713
Email: jacobpodgorski@gmail.com


OFFICIAL WEBSITE FOR ROYAL HOAX: http://www.royalhoax.com/main


This song can be played in 2 different tunings: Eb and Drop D. I will tab out both of them.

If you have an questions/comments, feel free to email me




Eb Tuning:

Intro:

e|----------------|----------------|-----------------|------------------|
B|----5-------5---|----------------|-----------------|-----------------O|
G|----------------|----5-------5---|----6--------6---|------------------|
D|--6---6---6---6-|--6---6---6---6-|--7---7----7---7-|----4-------4-----|
A|4-------4-------|----------------|-----------------|--2---2---2---2--O|
E|----------------|4-------4-------|5--------5-------|0-------0---------|

Verse: (rest for 8 bars first)

e|4-------4-------|2-------2-------|0-------0--------|2-------2---------|
B|----------------|----------------|-----------------|-----------------O|
G|----6-------6---|----5-------5---|----0-------0----|----4-------4-----|
D|----------------|----------------|-----------------|------------------|
A|----------------|----------------|-----------------|-----------------O|
E|----------------|----------------|-----------------|------------------|

Chorus: 

e|----------------|----------------|-----------------|------------------|
B|----5-------5---|----------------|-----------------|-----------------O|
G|----------------|----5-------5---|----6--------6---|------------------|
D|--6---6---6---6-|--6---6---6---6-|--7---7----7---7-|----4-------4-----|
A|4-------4-------|----------------|-----------------|--2---2---2---2--O|
E|----------------|4-------4-------|5--------5-------|0-------0---------|

Verse 2
Chorus

Bridge:
Cm
She dropped it on me before she walked out the door, she said
 Cm
"I never even loved you, don't need you anymore and I'm
Eb                     Fm              G
Leaving now. Don't you dare come after me!"
 Cm
"I'm letting you know before I walk out the door," she said
 Cm
"I never even loved you, don't need you anymore and I'm
Eb                     Fm              G
Leaving now. Don't you dare come after me!"

Pre Chorus:

e|----------------|----------------|-----------------|------------------|
B|----5-------5---|----------------|-----------------|------------------|
G|----------------|----5-------5---|6----------------|------------------|
D|--6---6---6---6-|--6---6---6---6-|7----------------|------------------|
A|4-------4-------|----------------|7----------------|------------------|
E|----------------|4-------4-------|5----------------|------------------|

Chorus until the end





Now for Drop D tuning:

Intro:

e|----------------|----------------|-----------------|------------------|
B|----4-------4---|----------------|-----------------|-----------------O|
G|----------------|----4-------4---|----5--------5---|------------------|
D|--5---5---5---5-|--5---5---5---5-|--6---6----6---6-|----3-------3-----|
A|3-------3-------|----------------|-----------------|--1---1---1---1--O|
D|----------------|5-------5-------|6--------6-------|1-------1---------|

Verse: (rest for 8 bars first)

e|5-------4-------|3-------3-------|1-------1--------|3-------3---------|
B|----------------|----------------|-----------------|-----------------O|
G|-----7------7---|----6-------6---|----1-------1----|----5-------5-----|
D|----------------|----------------|-----------------|------------------|
A|----------------|----------------|-----------------|-----------------O|
E|----------------|----------------|-----------------|------------------|

Chorus: 

e|----------------|----------------|-----------------|------------------|
B|----4-------4---|----------------|-----------------|-----------------O|
G|----------------|----4-------4---|----5--------5---|------------------|
D|--5---5---5---5-|--5---5---5---5-|--6---6----6---6-|----3-------3-----|
A|3-------3-------|----------------|-----------------|--1---1---1---1--O|
D|----------------|5-------5-------|6--------6-------|1-------1---------|

Verse 2
Chorus

Bridge:
Cm
She dropped it on me before she walked out the door, she said
 Cm
"I never even loved you, don't need you anymore and I'm
Eb                     Fm              G
Leaving now. Don't you dare come after me!"
 Cm
"I'm letting you know before I walk out the door," she said
 Cm
"I never even loved you, don't need you anymore and I'm
Eb                     Fm              G
Leaving now. Don't you dare come after me!"

Pre Chorus:

e|----------------|----------------|-----------------|------------------|
B|----4-------4---|----------------|-----------------|------------------|
G|----------------|----4-------4---|5----------------|------------------|
D|--5---5---5---5-|--5---5-------5-|6----------------|------------------|
A|3-------3-------|----------------|6----------------|------------------|
E|----------------|5-------5-------|4----------------|------------------|

Chorus until the end


Thanks! Rate please!
Добавлено: 08.08.2013
Другие материалы по этой песне:
  • Аккорды и текст

Страница создана 08.08.2013
http://primanota.ru/royal-hoax/streets-of-chicago-chords.htm
Привет, Гость.
Предлагаем пройти революционный курс по гитаре.
Подарок от PrimaNota.Ru, забирай!