PrimaNota.ru - самый крупный в мире бесплатный архив песенных текстов, аккордов, табулатур и нот


Roy Orbison - Oh Pretty Woman - аккорды и текст, таба, видео

Регистрация Запомнить меня
Войти через:  Facebook Google Twitter Vk Yandex Mail.ru

Roy Orbison - Oh Pretty Woman - аккорды и текст, таба, видео

Печатать
Просмотров: 1717
Авторы музыки: Roy Orbison, William Dees
Авторы текста: Roy Orbison, William Dees
Oh Pretty Woman
Roy Orbison
Pretty Woman:Roy Orbison.
#1 in 1964.

INTRO: (x2)
---------------------------------------------------|
---------------------------------------------------|
---------------------------------------------------|
-------------0-0-0-0--------------0-0-0-0----------|
----------2-------------------2--------------------|
--0-0--4---------------0-0-4-----------------------|

RIFF:#1. (x4)
---------------------------------------------------|
---------------------------------------------------|
---------------------------------------------------|
------------0---4-2-0------------------------------|
---------2-----------------------------------------|
-0--0--4-------------------------------------------|

OUTRO: (x1)
---------------------------------------------------|
---------------------------------------------------|
---------------------------------------------------|
----------0-4-2-0-----------0-4-2-0----------------|
--------2----------------2-----------2-0-----------|End on A.
--0-0-4------------0-0-4---------------------------|

#1.
A                     F#m
Pretty woman, walking down the street.
       A                 F#m
Pretty woman, the kind I like to meet.
       D                E
Pretty woman..I don't believe you, you're not the truth.

No one could look as good as you..Mercy! (RIFF:#1 X4)

#2.
       A                F#m
Pretty woman, won't you pardon me?
       A                 F#m
Pretty woman, I couldn't help but see.
       D                    E
Pretty woman..that you look lovely as can be.

Are you lonely just like me? Rrrrrooowww. (RIFF:#1 X4)

CHORUS:
Dm7           G7
Pretty woman, stop a while.
C             Am7
Pretty woman, talk a while.
Dm7           G7                 C  Am7
Pretty woman, give your smile to me.
Dm7           G7
Pretty woman, yeah, yeah, yeah.
C             Am7
Pretty woman, look my way.
Dm7           G7                   C  A
Pretty woman, say you'll stay with me..
        F#m       D              E
cause I need you, I'll treat you right.
A            F#m   D         E
Come with me baby, be mine tonight. (RIFF:#1 X4)

#3.
A                   F#m
Pretty woman, don't walk on by.
A                   F#m
Pretty woman, don't make me cry.
       D            E
Pretty woman..don't walk away, hey...okay.
E
If that's the way it must be, okay.
E
I guess I'll go on home, it's late.
E
There'll be tomorrow night, but wait..

What do I see? (INTRO RIFF:x2)
E
Is she walking back to me? (RIFF:#1 X 10 over rest of song.)
E
Yeah, she's walking back to me.
E                A
Whoa, oh, Pretty woman.


A sixties smash from Kraziekhat.
Добавлено: 08.03.2012
Другие материалы по этой песне:

Страница создана 08.03.2012
http://primanota.ru/roy-orbison/oh-pretty-woman-chords.htm
Привет, Гость.
Предлагаем пройти революционный курс по гитаре.
Подарок от PrimaNota.Ru, забирай!