PrimaNota.ru - самый крупный в мире бесплатный архив песенных текстов, аккордов, табулатур и нот


Roy Orbison - I Was A Fool - аккорды и текст, видео

Регистрация Запомнить меня
Войти через:  Facebook Google Twitter Vk Yandex Mail.ru

Roy Orbison - I Was A Fool - аккорды и текст, видео

Печатать
Просмотров: 140
I Was A Fool
Roy Orbison
I Was A Fool:Roy Orbison.
Recorded at SUN Records in 1956/'57.

INTRO: E

-------------------------------------------
-------------------------------------------
------------------------------------------- (x4)
-------------------------------------------
--------0-4--2-----4-2---------------------
----0-4-----------------4-0----------------


#1.
E       Dbm     E            Dbm
I don't lose my blues when I pretend you're 
B
with me.
B                     Bm        E
Though I make believe I'm still alone.
E      Dbm      E             Dbm    B
When I think of you, my empty arms remind me,
     A           B        E
that my one true love has gone.

CHORUS:
A                                     E
I was a fool, that's why I cried over you.
A             B             E   Dbm E
I was a fool, I only wanted you.

#2.
A      E             B    E    B      Abm
When I smile so gay, everybody knows, that 
     B
I've lost my love.
                      E
But that's the way it goes.
B      E        Dbm     E            B
When I think of you, my empty arms remind me,
     A           B        E
that my one true love has gone.

CHORUS:
A                                     E
I was a fool, that's why I cried over you.
A             B             E  
I was a fool, I only wanted you.

OUTRO:
-------------------------------------------
-------------------------------------------
------------------------------------------- (x1)
-------------------------------------------
--------0-4--2-----4-2---------------------
----0-4-----------------4-0----------------



A fifties smash from Kraziekhat.



Добавлено: 27.08.2015
Другие материалы по этой песне:
  • Аккорды и текст

Страница создана 01.09.2013
http://primanota.ru/roy-orbison/i-was-a-fool-chords.htm
Привет, Гость.
Предлагаем пройти революционный курс по гитаре.
Подарок от PrimaNota.Ru, забирай!