PrimaNota.ru - самый крупный в мире бесплатный архив песенных текстов, аккордов, табулатур и нот


Roy Harper - How Does It Feel - таба, видео

Регистрация Запомнить меня
Войти через:  Facebook Google Twitter Vk Yandex Mail.ru

Roy Harper - How Does It Feel - таба, видео

Печатать
Просмотров: 98
Авторы музыки: Roy Harper

Tuning: DADGAd
 
Chords:
 
Dmaj7:     040200
Gadd9/d:   020000
D:         054x00
A5:        777977
G5:        555755
D(xii):    0 12 0 11 0 0
Dsus4add9: 0 10 0 9 0 0
D(viii):   090700

Dmaj7              Gadd9/d
-0-|-0-------0---0-0-|-0-----------------------0-0-----|
-0-|-0-------0---0-0-|-0-----------------------0-0-----|
-2-|-2-------0---0-0-|-0-----------------------0-0-----|
-0-|-0-------0---0-0-|-0-------------------------------|
---|-4-----------0-2-|-2---------------------------2-0-|
---|-0-----------0-0-|-0-------------------------------|
 
 D
|----0-----------------------0---|-----------------------------0---|
|--------------------------------|-------------------0-------------|
|--------------------------------|---------------------0-----------|
|--------4-5---4-5-4-4-----------|---5-5-4-5-5-4-5-5-----4------(4)|
|----------------------5---------|-------------------------5-------|
|0-----------------------0-------|---------------------------------|

|-------------------------|----(0)--0---0-0-----0---0-0-0-0-|
|-------------------------|----(0)--0---0-0-----0---0-0-0-0-|
|(0)------------0---------|----(x)--x---x-x-----x---x-x-x-x-|
|---------5-5-4-----0-4---|----(4)--4---4-4-----4---4-4-4-4-|
|-----------------2---5---|---------5-----------5---5-5-5-5-|
|-----------------------0-|-0-------0-------0---------------|
 
Verse:
 
Dmaj7          Gadd9/d           D 
  How does it feel    to be completely unreal
Dmaj7          Gadd9/d           D  
  How does it feel    to be a voter
Dmaj7          Gadd9/d           D  
  How does it feel    to be a voluntary heel
A5
  I wonder who's it is
  G5                  D         G5             D
   I see ya queueing up outside   St. Peter's gate
D(xii)           Dsus4add9      D(viii) Dmaj7      Gadd9/d
 You can feel bona fide if you ride      with the tide but its not

 D (riff)
|-----0---0---0-0-0---0---0-------|-0---0(0)0---0-0-0-0-0-0-|
|-----0---0---0-0-0---0---0-------|-0---0(0)0---0-0-0-0-0-0-|
|-----x---x---x-x-x---x---x-------|-x---x(x)x---x-x-x-x-x-x-|
|-----4---4h5-5-4-5---5---4-------|-4h5-5(4)5---4-5-5-4-4-4-|
|---------5---5-0-5---5---5-------|-5---5(5)5---5-5-5-5-5-5-|
|-0-------0---0-0-0---0---0-------|-0-------0---0-0-0-0-0-0-|
  real.
 
|---------0---x-0---0-0---0-0-0-0-|
|---------0---x-0---0-0---0-0-0-0-|
|---------x---x-x---x-x---x-x-x-x-|
|---------4---x-4---4-4---4-4-4-4-|
|---------5-----5-----5---5-5-5-5-|
|-0-------0-------0---0---0---0---|
 
Chorus:
A5                           G5                 D
 And outside on the dragon     and inside in the cold
A5                           G5            A5
 Mum is on the band wagon      and Dad is just getting old
D(xii)           Dsus4add9  D(viii)   D(xii)      Dsus4add9 D(viii)
 And through the blood spew  heavens, the roar of lust  complains
D(xii)  Dsus4add9   D(viii) Dmaj7 Gadd9/d                    D (riff)
 Please let me in I have no     sins    but you know I'm not real.
 

Добавлено: 11.07.2012
Другие материалы по этой песне:
  • Аккорды и текст

Страница создана 11.07.2012
http://primanota.ru/roy-harper/how-does-it-feel-chords.htm
Привет, Гость.
Предлагаем пройти революционный курс по гитаре.
Подарок от PrimaNota.Ru, забирай!