PrimaNota.ru - самый крупный в мире бесплатный архив песенных текстов, аккордов, табулатур и нот


Roy Harper - Goldfish Bowl - таба, видео

Регистрация Запомнить меня
Войти через:  Facebook Google Twitter Vk Yandex Mail.ru

Roy Harper - Goldfish Bowl - таба, видео

Печатать
Просмотров: 76
Tuning: EADGAd
Capo on 3


Intro:
|---------(0)--------0-0-----0-0-|--------0-0---------0-0-0-0-----|
|---------(0)--------0-0-----0-0-|--------0-0-----3---0-0-0-0-----|
|2-----------0h2---------0h2-----|---2--------2---------------0h2-|
|----------------0---------------|0-------------------------------|
|--------------------------------|--------------------------------|
|--------------------------------|--------------------------------|
                     >
|----0-0-----0-0-----0-------0-0-|
|----0-0-----0-0-----0-------0-0-|
|--------0h2---------2-----------|
|0---------------0---------------|
|--------------------------------|
|--------------------------------|

Verse:

|----0-0-0-0-0-0-----0-0-----0-0-|----0-0-----0-0-----0-0-0-0-----|
|----0-0-0-0-0-0-----0-0-----0-0-|----0-0-----0-0-----0-0-0-0-----|
|2---------------4-------2-------|0------------------(0-0-0-0)----|
|--------------------------------|--------4-------2-----------0---|
|--------------------------------|--------------------------------|
|--------------------------------|--------------------------------|
          Little  gold -  fish     in      your  bowl          I've   

|----0-0-0-0---------0-0-----0-0-|--------0-0---------0-0-0-0-0-0-|
|----0-0-0-0---------0-0-----0-0-|--------0-0---------0-0-0-0-0-0-|
|---(0-0-0-0)-------(0-0)---(0-0)|--------0-0---------0-0-0-0-0-0-|
|0h2---------4---2-------0-------|--------------------------------|
|--------------------------------|----0h2-----0h2-----------------|
|--------------------------------|3---------------3---------------|
  dug         you all     day      long.

|----0-0-0-0---------0-0-----0-0-|----0-0-----0-0-----0-0-----0-0-|
|----0-0-0-0---------0-0-----0-0-|----0-0-----0-0-----0-0-----0-0-|
|0h2---------4---2-------0-------|---(0-0)---(0-0)---(0-0)----0-0-|
|--------------------------------|4-------2-------0---------------|
|--------------------------------|------------------------4-------|
|--------------------------------|--------------------------------|
           Yellow scales  a    -  ri  -    sin'    through the

                                  (D)
|----0-0-----0-0-----0-0-----0-0-|----0-0-0-0---------0-0-----0-0-|
|----0-0-----0-0-----0-0-----0-0-|----0-0-0-0---------0-0-----0-0-|
|----0-0-----0-0-----0-0-----0-0-|------------2-----------0h2-----|
|--------------------------------|0---------------0---------------|
|2-------0-------0h2-----4-------|--------------------------------|
|--------------------------------|--------------------------------|
  cei -  lin'     of      my       song.
 
|--------0-0-----0---0-0-----0-0-|----0-0-0-0---------0-----0-0-0-|
|--------0-0-----0---0-0-----0-0-|----0-0-0-0---------0-----0-0-0-|
|----2-------2-----------0h2-----|------------0h2-----2-----------|
|0-------------------------------|0---------------0---------------|
|--------------------------------|--------------------------------|
|--------------------------------|--------------------------------|
Добавлено: 27.05.2012
Другие материалы по этой песне:
  • Аккорды и текст

Страница создана 27.05.2012
http://primanota.ru/roy-harper/goldfish-bowl-chords.htm
Привет, Гость.
Предлагаем пройти революционный курс по гитаре.
Подарок от PrimaNota.Ru, забирай!